  0
SECTION
  2
HEADER
  9
$ACADVER
  1
AC1024
  9
$ACADMAINTVER
 70
     6
  9
$DWGCODEPAGE
  3
UNDEFINED
  9
$INSBASE
 10
0.0
 20
0.0
 30
0.0
  9
$EXTMIN
 10
1.000000000000000E+20
 20
1.000000000000000E+20
 30
1.000000000000000E+20
  9
$EXTMAX
 10
-1.000000000000000E+20
 20
-1.000000000000000E+20
 30
-1.000000000000000E+20
  9
$LIMMIN
 10
0.0
 20
0.0
  9
$LIMMAX
 10
12.0
 20
9.0
  9
$ORTHOMODE
 70
     0
  9
$REGENMODE
 70
     1
  9
$FILLMODE
 70
     1
  9
$QTEXTMODE
 70
     0
  9
$MIRRTEXT
 70
     1
  9
$LTSCALE
 40
1.0
  9
$ATTMODE
 70
     1
  9
$TEXTSIZE
 40
0.2
  9
$TRACEWID
 40
0.05
  9
$TEXTSTYLE
  7
Standard
  9
$CLAYER
  8
0
  9
$CELTYPE
  6
ByLayer
  9
$CECOLOR
 62
   256
  9
$CELTSCALE
 40
1.0
  9
$DISPSILH
 70
     0
  9
$DIMSCALE
 40
1.0
  9
$DIMASZ
 40
0.18
  9
$DIMEXO
 40
0.0625
  9
$DIMDLI
 40
0.38
  9
$DIMRND
 40
0.0
  9
$DIMDLE
 40
0.0
  9
$DIMEXE
 40
0.18
  9
$DIMTP
 40
0.0
  9
$DIMTM
 40
0.0
  9
$DIMTXT
 40
0.18
  9
$DIMCEN
 40
0.09
  9
$DIMTSZ
 40
0.0
  9
$DIMTOL
 70
     0
  9
$DIMLIM
 70
     0
  9
$DIMTIH
 70
     1
  9
$DIMTOH
 70
     1
  9
$DIMSE1
 70
     0
  9
$DIMSE2
 70
     0
  9
$DIMTAD
 70
     0
  9
$DIMZIN
 70
     0
  9
$DIMBLK
  1

  9
$DIMASO
 70
     1
  9
$DIMSHO
 70
     1
  9
$DIMPOST
  1

  9
$DIMAPOST
  1

  9
$DIMALT
 70
     0
  9
$DIMALTD
 70
     2
  9
$DIMALTF
 40
25.4
  9
$DIMLFAC
 40
1.0
  9
$DIMTOFL
 70
     0
  9
$DIMTVP
 40
0.0
  9
$DIMTIX
 70
     0
  9
$DIMSOXD
 70
     0
  9
$DIMSAH
 70
     0
  9
$DIMBLK1
  1

  9
$DIMBLK2
  1

  9
$DIMSTYLE
  2
Standard
  9
$DIMCLRD
 70
     0
  9
$DIMCLRE
 70
     0
  9
$DIMCLRT
 70
     0
  9
$DIMTFAC
 40
1.0
  9
$DIMGAP
 40
0.09
  9
$DIMJUST
 70
     0
  9
$DIMSD1
 70
     0
  9
$DIMSD2
 70
     0
  9
$DIMTOLJ
 70
     1
  9
$DIMTZIN
 70
     0
  9
$DIMALTZ
 70
     0
  9
$DIMALTTZ
 70
     0
  9
$DIMUPT
 70
     0
  9
$DIMDEC
 70
     4
  9
$DIMTDEC
 70
     4
  9
$DIMALTU
 70
     2
  9
$DIMALTTD
 70
     2
  9
$DIMTXSTY
  7
Standard
  9
$DIMAUNIT
 70
     0
  9
$DIMADEC
 70
     0
  9
$DIMALTRND
 40
0.0
  9
$DIMAZIN
 70
     0
  9
$DIMDSEP
 70
    46
  9
$DIMATFIT
 70
     3
  9
$DIMFRAC
 70
     0
  9
$DIMLDRBLK
  1

  9
$DIMLUNIT
 70
     2
  9
$DIMLWD
 70
    -2
  9
$DIMLWE
 70
    -2
  9
$DIMTMOVE
 70
     0
  9
$DIMFXL
 40
1.0
  9
$DIMFXLON
 70
     0
  9
$DIMJOGANG
 40
0.7853981633974483
  9
$DIMTFILL
 70
     0
  9
$DIMTFILLCLR
 70
     0
  9
$DIMARCSYM
 70
     0
  9
$DIMLTYPE
  6

  9
$DIMLTEX1
  6

  9
$DIMLTEX2
  6

  9
$DIMTXTDIRECTION
 70
     0
  9
$LUNITS
 70
     2
  9
$LUPREC
 70
     4
  9
$SKETCHINC
 40
0.1
  9
$FILLETRAD
 40
0.5
  9
$AUNITS
 70
     0
  9
$AUPREC
 70
     0
  9
$MENU
  1
.
  9
$ELEVATION
 40
0.0
  9
$PELEVATION
 40
0.0
  9
$THICKNESS
 40
0.0
  9
$LIMCHECK
 70
     0
  9
$CHAMFERA
 40
0.5
  9
$CHAMFERB
 40
0.5
  9
$CHAMFERC
 40
1.0
  9
$CHAMFERD
 40
0.0
  9
$SKPOLY
 70
     0
  9
$TDCREATE
 40
2458862.462997685
  9
$TDUCREATE
 40
2458862.129664352
  9
$TDUPDATE
 40
2458862.462997685
  9
$TDUUPDATE
 40
2458862.129664352
  9
$TDINDWG
 40
0.0000000116
  9
$TDUSRTIMER
 40
0.0000000116
  9
$USRTIMER
 70
     1
  9
$ANGBASE
 50
0.0
  9
$ANGDIR
 70
     0
  9
$PDMODE
 70
     0
  9
$PDSIZE
 40
0.0
  9
$PLINEWID
 40
0.0
  9
$SPLFRAME
 70
     0
  9
$SPLINETYPE
 70
     6
  9
$SPLINESEGS
 70
     8
  9
$HANDSEED
  5
4C9
  9
$SURFTAB1
 70
     6
  9
$SURFTAB2
 70
     6
  9
$SURFTYPE
 70
     6
  9
$SURFU
 70
     6
  9
$SURFV
 70
     6
  9
$UCSBASE
  2

  9
$UCSNAME
  2

  9
$UCSORG
 10
0.0
 20
0.0
 30
0.0
  9
$UCSXDIR
 10
1.0
 20
0.0
 30
0.0
  9
$UCSYDIR
 10
0.0
 20
1.0
 30
0.0
  9
$UCSORTHOREF
  2

  9
$UCSORTHOVIEW
 70
     0
  9
$UCSORGTOP
 10
0.0
 20
0.0
 30
0.0
  9
$UCSORGBOTTOM
 10
0.0
 20
0.0
 30
0.0
  9
$UCSORGLEFT
 10
0.0
 20
0.0
 30
0.0
  9
$UCSORGRIGHT
 10
0.0
 20
0.0
 30
0.0
  9
$UCSORGFRONT
 10
0.0
 20
0.0
 30
0.0
  9
$UCSORGBACK
 10
0.0
 20
0.0
 30
0.0
  9
$PUCSBASE
  2

  9
$PUCSNAME
  2

  9
$PUCSORG
 10
0.0
 20
0.0
 30
0.0
  9
$PUCSXDIR
 10
1.0
 20
0.0
 30
0.0
  9
$PUCSYDIR
 10
0.0
 20
1.0
 30
0.0
  9
$PUCSORTHOREF
  2

  9
$PUCSORTHOVIEW
 70
     0
  9
$PUCSORGTOP
 10
0.0
 20
0.0
 30
0.0
  9
$PUCSORGBOTTOM
 10
0.0
 20
0.0
 30
0.0
  9
$PUCSORGLEFT
 10
0.0
 20
0.0
 30
0.0
  9
$PUCSORGRIGHT
 10
0.0
 20
0.0
 30
0.0
  9
$PUCSORGFRONT
 10
0.0
 20
0.0
 30
0.0
  9
$PUCSORGBACK
 10
0.0
 20
0.0
 30
0.0
  9
$USERI1
 70
     0
  9
$USERI2
 70
     0
  9
$USERI3
 70
     0
  9
$USERI4
 70
     0
  9
$USERI5
 70
     0
  9
$USERR1
 40
0.0
  9
$USERR2
 40
0.0
  9
$USERR3
 40
0.0
  9
$USERR4
 40
0.0
  9
$USERR5
 40
0.0
  9
$WORLDVIEW
 70
     1
  9
$SHADEDGE
 70
     3
  9
$SHADEDIF
 70
    70
  9
$TILEMODE
 70
     1
  9
$MAXACTVP
 70
    64
  9
$PINSBASE
 10
0.0
 20
0.0
 30
0.0
  9
$PLIMCHECK
 70
     0
  9
$PEXTMIN
 10
1.000000000000000E+20
 20
1.000000000000000E+20
 30
1.000000000000000E+20
  9
$PEXTMAX
 10
-1.000000000000000E+20
 20
-1.000000000000000E+20
 30
-1.000000000000000E+20
  9
$PLIMMIN
 10
0.0
 20
0.0
  9
$PLIMMAX
 10
12.0
 20
9.0
  9
$UNITMODE
 70
     0
  9
$VISRETAIN
 70
     1
  9
$PLINEGEN
 70
     0
  9
$PSLTSCALE
 70
     1
  9
$TREEDEPTH
 70
  3020
  9
$CMLSTYLE
  2
Standard
  9
$CMLJUST
 70
     0
  9
$CMLSCALE
 40
1.0
  9
$PROXYGRAPHICS
 70
     1
  9
$MEASUREMENT
 70
     0
  9
$CELWEIGHT
370
    -1
  9
$ENDCAPS
280
     0
  9
$JOINSTYLE
280
     0
  9
$LWDISPLAY
290
     1
  9
$INSUNITS
 70
     0
  9
$HYPERLINKBASE
  1

  9
$STYLESHEET
  1

  9
$XEDIT
290
     1
  9
$CEPSNTYPE
380
     0
  9
$PSTYLEMODE
290
     1
  9
$FINGERPRINTGUID
  2
{76EEBD8C-2359-387E-F91D-6526EFEA7A0C}
  9
$VERSIONGUID
  2
{FAEB1C32-E019-11D5-929B-00C0DF256EC4}
  9
$EXTNAMES
290
     1
  9
$PSVPSCALE
 40
0.0
  9
$OLESTARTUP
290
     0
  9
$SORTENTS
280
   127
  9
$INDEXCTL
280
     0
  9
$HIDETEXT
280
     1
  9
$XCLIPFRAME
280
     2
  9
$HALOGAP
280
     0
  9
$OBSCOLOR
 70
   257
  9
$OBSLTYPE
280
     0
  9
$INTERSECTIONDISPLAY
280
     0
  9
$INTERSECTIONCOLOR
 70
   257
  9
$DIMASSOC
280
     2
  9
$PROJECTNAME
  1

  9
$CAMERADISPLAY
290
     0
  9
$LENSLENGTH
 40
50.0
  9
$CAMERAHEIGHT
 40
0.0
  9
$STEPSPERSEC
 40
2.0
  9
$STEPSIZE
 40
6.0
  9
$3DDWFPREC
 40
2.0
  9
$PSOLWIDTH
 40
0.25
  9
$PSOLHEIGHT
 40
4.0
  9
$LOFTANG1
 40
1.570796326794897
  9
$LOFTANG2
 40
1.570796326794897
  9
$LOFTMAG1
 40
0.0
  9
$LOFTMAG2
 40
0.0
  9
$LOFTPARAM
 70
     7
  9
$LOFTNORMALS
280
     1
  9
$LATITUDE
 40
37.795
  9
$LONGITUDE
 40
-122.394
  9
$NORTHDIRECTION
 40
0.0
  9
$TIMEZONE
 70
 -8000
  9
$LIGHTGLYPHDISPLAY
280
     1
  9
$TILEMODELIGHTSYNCH
280
     1
  9
$CMATERIAL
347
3C
  9
$SOLIDHIST
280
     1
  9
$SHOWHIST
280
     1
  9
$DWFFRAME
280
     2
  9
$DGNFRAME
280
     2
  9
$REALWORLDSCALE
290
     1
  9
$INTERFERECOLOR
 62
   256
  9
$CSHADOW
280
     0
  9
$SHADOWPLANELOCATION
 40
0.0
  0
ENDSEC
  0
SECTION
  2
CLASSES
  0
CLASS
  1
ACDBDICTIONARYWDFLT
  2
AcDbDictionaryWithDefault
  3
ObjectDBX Classes
 90
        0
 91
        4
280
     0
281
     0
  0
CLASS
  1
VISUALSTYLE
  2
AcDbVisualStyle
  3
ObjectDBX Classes
 90
     4095
 91
        4
280
     0
281
     0
  0
CLASS
  1
MATERIAL
  2
AcDbMaterial
  3
ObjectDBX Classes
 90
     1153
 91
        4
280
     0
281
     0
  0
CLASS
  1
SUN
  2
AcDbSun
  3
SCENEOE
 90
     1024
 91
        4
280
     0
281
     0
  0
ENDSEC
  0
SECTION
  2
TABLES
  0
TABLE
  2
VPORT
  5
8
330
0
100
AcDbSymbolTable
 70
     1
  0
VPORT
  5
29
330
8
100
AcDbSymbolTableRecord
100
AcDbViewportTableRecord
  2
*Active
 70
     0
 10
0.0
 20
0.0
 11
1.0
 21
1.0
 12
0.0
 22
0.0
 13
0.0
 23
0.0
 14
0.5
 24
0.5
 15
0.5
 25
0.5
 16
0.0
 26
0.0
 36
1.0
 17
1275.590576171875
 27
850.3936157226562
 37
0.0
 40
1700.787231445312
 41
1.500000179432075
 42
50.0
 43
0.0
 44
0.0
 50
0.0
 51
0.0
 71
     0
 72
   100
 73
     1
 74
     3
 75
     0
 76
     0
 77
     0
 78
     0
281
     0
 65
     1
110
0.0
120
0.0
130
0.0
111
1.0
121
0.0
131
0.0
112
0.0
122
1.0
132
0.0
 79
     0
146
0.0
 60
     3
 61
     5
292
     1
282
     1
141
0.0
142
0.0
 63
   250
361
3F
  0
ENDTAB
  0
TABLE
  2
LTYPE
  5
5
330
0
100
AcDbSymbolTable
 70
     1
  0
LTYPE
  5
14
330
5
100
AcDbSymbolTableRecord
100
AcDbLinetypeTableRecord
  2
ByBlock
 70
     0
  3

 72
    65
 73
     0
 40
0.0
  0
LTYPE
  5
15
330
5
100
AcDbSymbolTableRecord
100
AcDbLinetypeTableRecord
  2
ByLayer
 70
     0
  3

 72
    65
 73
     0
 40
0.0
  0
LTYPE
  5
16
330
5
100
AcDbSymbolTableRecord
100
AcDbLinetypeTableRecord
  2
Continuous
 70
     0
  3
Solid line
 72
    65
 73
     0
 40
0.0
  0
ENDTAB
  0
TABLE
  2
LAYER
  5
2
330
0
100
AcDbSymbolTable
 70
     2
  0
LAYER
  5
10
330
2
100
AcDbSymbolTableRecord
100
AcDbLayerTableRecord
  2
0
 70
     0
 62
     7
  6
Continuous
370
    -3
390
F
347
3E
  0
LAYER
  5
40
330
2
100
AcDbSymbolTableRecord
100
AcDbLayerTableRecord
  2
svg2
 70
     0
 62
     7
  6
Continuous
370
    -3
390
F
347
3E
  0
ENDTAB
  0
TABLE
  2
STYLE
  5
3
330
0
100
AcDbSymbolTable
 70
     1
  0
STYLE
  5
11
330
3
100
AcDbSymbolTableRecord
100
AcDbTextStyleTableRecord
  2
Standard
 70
     0
 40
0.0
 41
1.0
 50
0.0
 71
     0
 42
0.2
  3
txt
  4

  0
ENDTAB
  0
TABLE
  2
VIEW
  5
6
330
0
100
AcDbSymbolTable
 70
     0
  0
ENDTAB
  0
TABLE
  2
UCS
  5
7
330
0
100
AcDbSymbolTable
 70
     0
  0
ENDTAB
  0
TABLE
  2
APPID
  5
9
330
0
100
AcDbSymbolTable
 70
     1
  0
APPID
  5
12
330
9
100
AcDbSymbolTableRecord
100
AcDbRegAppTableRecord
  2
ACAD
 70
     0
  0
ENDTAB
  0
TABLE
  2
DIMSTYLE
  5
A
330
0
100
AcDbSymbolTable
 70
     1
100
AcDbDimStyleTable
  0
DIMSTYLE
105
27
330
A
100
AcDbSymbolTableRecord
100
AcDbDimStyleTableRecord
  2
Standard
 70
     0
178
     0
340
11
  0
ENDTAB
  0
TABLE
  2
BLOCK_RECORD
  5
1
330
0
100
AcDbSymbolTable
 70
    27
  0
BLOCK_RECORD
  5
1F
330
1
100
AcDbSymbolTableRecord
100
AcDbBlockTableRecord
  2
*Model_Space
340
22
 70
     0
280
     1
281
     0
  0
BLOCK_RECORD
  5
1B
330
1
100
AcDbSymbolTableRecord
100
AcDbBlockTableRecord
  2
*Paper_Space
340
1E
 70
     0
280
     1
281
     0
  0
BLOCK_RECORD
  5
23
330
1
100
AcDbSymbolTableRecord
100
AcDbBlockTableRecord
  2
*Paper_Space0
340
26
 70
     0
280
     1
281
     0
  0
BLOCK_RECORD
  5
41
330
1
100
AcDbSymbolTableRecord
100
AcDbBlockTableRecord
  2
block 2
340
0
102
{BLKREFS
331
42
102
}
 70
     0
280
     1
281
     0
  0
BLOCK_RECORD
  5
45
330
1
100
AcDbSymbolTableRecord
100
AcDbBlockTableRecord
  2
block 3
340
0
102
{BLKREFS
331
46
102
}
 70
     0
280
     1
281
     0
  0
BLOCK_RECORD
  5
49
330
1
100
AcDbSymbolTableRecord
100
AcDbBlockTableRecord
  2
block 4
340
0
102
{BLKREFS
331
4A
102
}
 70
     0
280
     1
281
     0
  0
BLOCK_RECORD
  5
4D
330
1
100
AcDbSymbolTableRecord
100
AcDbBlockTableRecord
  2
block 5
340
0
102
{BLKREFS
331
4E
102
}
 70
     0
280
     1
281
     0
  0
BLOCK_RECORD
  5
51
330
1
100
AcDbSymbolTableRecord
100
AcDbBlockTableRecord
  2
block 6
340
0
102
{BLKREFS
331
52
102
}
 70
     0
280
     1
281
     0
  0
BLOCK_RECORD
  5
55
330
1
100
AcDbSymbolTableRecord
100
AcDbBlockTableRecord
  2
block 7
340
0
102
{BLKREFS
331
56
102
}
 70
     0
280
     1
281
     0
  0
BLOCK_RECORD
  5
59
330
1
100
AcDbSymbolTableRecord
100
AcDbBlockTableRecord
  2
block 8
340
0
102
{BLKREFS
331
5A
102
}
 70
     0
280
     1
281
     0
  0
BLOCK_RECORD
  5
5D
330
1
100
AcDbSymbolTableRecord
100
AcDbBlockTableRecord
  2
block 9
340
0
102
{BLKREFS
331
5E
102
}
 70
     0
280
     1
281
     0
  0
BLOCK_RECORD
  5
61
330
1
100
AcDbSymbolTableRecord
100
AcDbBlockTableRecord
  2
block 10
340
0
102
{BLKREFS
331
62
102
}
 70
     0
280
     1
281
     0
  0
BLOCK_RECORD
  5
67
330
1
100
AcDbSymbolTableRecord
100
AcDbBlockTableRecord
  2
block 11
340
0
102
{BLKREFS
331
68
102
}
 70
     0
280
     1
281
     0
  0
BLOCK_RECORD
  5
6B
330
1
100
AcDbSymbolTableRecord
100
AcDbBlockTableRecord
  2
block 12
340
0
102
{BLKREFS
331
6C
102
}
 70
     0
280
     1
281
     0
  0
BLOCK_RECORD
  5
7D
330
1
100
AcDbSymbolTableRecord
100
AcDbBlockTableRecord
  2
block 13
340
0
102
{BLKREFS
331
7E
102
}
 70
     0
280
     1
281
     0
  0
BLOCK_RECORD
  5
F8
330
1
100
AcDbSymbolTableRecord
100
AcDbBlockTableRecord
  2
block 14
340
0
102
{BLKREFS
331
F9
102
}
 70
     0
280
     1
281
     0
  0
BLOCK_RECORD
  5
102
330
1
100
AcDbSymbolTableRecord
100
AcDbBlockTableRecord
  2
block 15
340
0
102
{BLKREFS
331
103
102
}
 70
     0
280
     1
281
     0
  0
BLOCK_RECORD
  5
10C
330
1
100
AcDbSymbolTableRecord
100
AcDbBlockTableRecord
  2
block 16
340
0
102
{BLKREFS
331
10D
102
}
 70
     0
280
     1
281
     0
  0
BLOCK_RECORD
  5
110
330
1
100
AcDbSymbolTableRecord
100
AcDbBlockTableRecord
  2
block 17
340
0
102
{BLKREFS
331
111
102
}
 70
     0
280
     1
281
     0
  0
BLOCK_RECORD
  5
11A
330
1
100
AcDbSymbolTableRecord
100
AcDbBlockTableRecord
  2
block 18
340
0
102
{BLKREFS
331
11B
102
}
 70
     0
280
     1
281
     0
  0
BLOCK_RECORD
  5
247
330
1
100
AcDbSymbolTableRecord
100
AcDbBlockTableRecord
  2
block 19
340
0
102
{BLKREFS
331
248
102
}
 70
     0
280
     1
281
     0
  0
BLOCK_RECORD
  5
2F2
330
1
100
AcDbSymbolTableRecord
100
AcDbBlockTableRecord
  2
block 20
340
0
102
{BLKREFS
331
2F3
102
}
 70
     0
280
     1
281
     0
  0
BLOCK_RECORD
  5
2FC
330
1
100
AcDbSymbolTableRecord
100
AcDbBlockTableRecord
  2
block 21
340
0
102
{BLKREFS
331
2FD
102
}
 70
     0
280
     1
281
     0
  0
BLOCK_RECORD
  5
306
330
1
100
AcDbSymbolTableRecord
100
AcDbBlockTableRecord
  2
block 22
340
0
102
{BLKREFS
331
307
102
}
 70
     0
280
     1
281
     0
  0
BLOCK_RECORD
  5
30A
330
1
100
AcDbSymbolTableRecord
100
AcDbBlockTableRecord
  2
block 23
340
0
102
{BLKREFS
331
30B
102
}
 70
     0
280
     1
281
     0
  0
BLOCK_RECORD
  5
314
330
1
100
AcDbSymbolTableRecord
100
AcDbBlockTableRecord
  2
block 24
340
0
102
{BLKREFS
331
315
102
}
 70
     0
280
     1
281
     0
  0
BLOCK_RECORD
  5
441
330
1
100
AcDbSymbolTableRecord
100
AcDbBlockTableRecord
  2
block 25
340
0
102
{BLKREFS
331
442
102
}
 70
     0
280
     1
281
     0
  0
BLOCK_RECORD
  5
453
330
1
100
AcDbSymbolTableRecord
100
AcDbBlockTableRecord
  2
block 26
340
0
102
{BLKREFS
331
454
102
}
 70
     0
280
     1
281
     0
  0
BLOCK_RECORD
  5
45F
330
1
100
AcDbSymbolTableRecord
100
AcDbBlockTableRecord
  2
block 27
340
0
102
{BLKREFS
331
460
102
}
 70
     0
280
     1
281
     0
  0
ENDTAB
  0
ENDSEC
  0
SECTION
  2
BLOCKS
  0
BLOCK
  5
20
330
1F
100
AcDbEntity
  8
0
100
AcDbBlockBegin
  2
*Model_Space
 70
     0
 10
0.0
 20
0.0
 30
0.0
  3
*Model_Space
  1

  0
ENDBLK
  5
21
330
1F
100
AcDbEntity
  8
0
100
AcDbBlockEnd
  0
BLOCK
  5
1C
330
1B
100
AcDbEntity
 67
     1
  8
0
100
AcDbBlockBegin
  2
*Paper_Space
 70
     0
 10
0.0
 20
0.0
 30
0.0
  3
*Paper_Space
  1

  0
ENDBLK
  5
1D
330
1B
100
AcDbEntity
 67
     1
  8
0
100
AcDbBlockEnd
  0
BLOCK
  5
24
330
23
100
AcDbEntity
  8
0
100
AcDbBlockBegin
  2
*Paper_Space0
 70
     0
 10
0.0
 20
0.0
 30
0.0
  3
*Paper_Space0
  1

  0
ENDBLK
  5
25
330
23
100
AcDbEntity
  8
0
100
AcDbBlockEnd
  0
BLOCK
  5
43
330
41
100
AcDbEntity
  8
0
100
AcDbBlockBegin
  2
block 2
 70
     0
 10
0.0
 20
0.0
 30
0.0
  3
block 2
  1

  0
ENDBLK
  5
44
330
41
100
AcDbEntity
  8
0
100
AcDbBlockEnd
  0
BLOCK
  5
47
330
45
100
AcDbEntity
  8
0
100
AcDbBlockBegin
  2
block 3
 70
     0
 10
0.0
 20
0.0
 30
0.0
  3
block 3
  1

  0
INSERT
  5
4A
330
45
100
AcDbEntity
  8
svg2
100
AcDbBlockReference
  2
block 4
 10
0.0
 20
0.0
 30
0.0
  0
INSERT
  5
4E
330
45
100
AcDbEntity
  8
svg2
100
AcDbBlockReference
  2
block 5
 10
0.0
 20
0.0
 30
0.0
  0
INSERT
  5
52
330
45
100
AcDbEntity
  8
svg2
100
AcDbBlockReference
  2
block 6
 10
0.0
 20
0.0
 30
0.0
  0
INSERT
  5
56
330
45
100
AcDbEntity
  8
svg2
100
AcDbBlockReference
  2
block 7
 10
0.0
 20
0.0
 30
0.0
  0
INSERT
  5
5A
330
45
100
AcDbEntity
  8
svg2
100
AcDbBlockReference
  2
block 8
 10
0.0
 20
0.0
 30
0.0
  0
INSERT
  5
5E
330
45
100
AcDbEntity
  8
svg2
100
AcDbBlockReference
  2
block 9
 10
0.0
 20
0.0
 30
0.0
  0
INSERT
  5
62
330
45
100
AcDbEntity
  8
svg2
100
AcDbBlockReference
  2
block 10
 10
0.0
 20
0.0
 30
0.0
  0
SPLINE
  5
65
330
45
100
AcDbEntity
  8
svg2
 62
     1
420
 16711680
370
    20
100
AcDbSpline
210
0.0
220
0.0
230
1.0
 70
    11
 71
     3
 72
    17
 73
    13
 74
     0
 42
0.0000000001
 43
0.0000000001
 12
1.0
 22
0.0
 32
0.0
 13
1.0
 23
0.0
 33
0.0
 40
0.0
 40
0.0
 40
0.0
 40
0.0
 40
1.0
 40
1.0
 40
1.0
 40
2.0
 40
2.0
 40
2.0
 40
3.0
 40
3.0
 40
3.0
 40
4.0
 40
4.0
 40
4.0
 40
4.0
 10
691.020322499422
 20
764.1133485475148
 30
0.0
 10
718.4171113704833
 20
764.1128295083763
 30
0.0
 10
740.6262770657522
 20
741.9029717609228
 30
0.0
 10
740.6257580266138
 20
714.5061828898615
 30
0.0
 10
740.6252822407369
 20
687.1099130579387
 30
0.0
 10
718.4164625715603
 20
664.9012664018082
 30
0.0
 10
691.020322499422
 20
664.9007473626698
 30
0.0
 10
663.6235768816223
 20
664.9004013365775
 30
0.0
 10
641.4138488939534
 20
687.1093940188002
 30
0.0
 10
641.4133731080765
 20
714.5061828898615
 30
0.0
 10
641.4128973221996
 20
741.9036638131074
 30
0.0
 10
663.6229280826992
 20
764.1136945736071
 30
0.0
 10
691.020322499422
 20
764.1133485475148
 30
0.0
  0
SPLINE
  5
66
330
45
100
AcDbEntity
  8
svg2
 62
     1
420
 16711680
370
    20
100
AcDbSpline
210
0.0
220
0.0
230
1.0
 70
    11
 71
     3
 72
   125
 73
   121
 74
     0
 42
0.0000000001
 43
0.0000000001
 12
1.0
 22
0.0
 32
0.0
 13
1.0
 23
0.0
 33
0.0
 40
0.0
 40
0.0
 40
0.0
 40
0.0
 40
1.0
 40
1.0
 40
1.0
 40
2.0
 40
2.0
 40
2.0
 40
3.0
 40
3.0
 40
3.0
 40
4.0
 40
4.0
 40
4.0
 40
5.0
 40
5.0
 40
5.0
 40
6.0
 40
6.0
 40
6.0
 40
7.0
 40
7.0
 40
7.0
 40
8.0
 40
8.0
 40
8.0
 40
9.0
 40
9.0
 40
9.0
 40
10.0
 40
10.0
 40
10.0
 40
11.0
 40
11.0
 40
11.0
 40
12.0
 40
12.0
 40
12.0
 40
13.0
 40
13.0
 40
13.0
 40
14.0
 40
14.0
 40
14.0
 40
15.0
 40
15.0
 40
15.0
 40
16.0
 40
16.0
 40
16.0
 40
17.0
 40
17.0
 40
17.0
 40
18.0
 40
18.0
 40
18.0
 40
19.0
 40
19.0
 40
19.0
 40
20.0
 40
20.0
 40
20.0
 40
21.0
 40
21.0
 40
21.0
 40
22.0
 40
22.0
 40
22.0
 40
23.0
 40
23.0
 40
23.0
 40
24.0
 40
24.0
 40
24.0
 40
25.0
 40
25.0
 40
25.0
 40
26.0
 40
26.0
 40
26.0
 40
27.0
 40
27.0
 40
27.0
 40
28.0
 40
28.0
 40
28.0
 40
29.0
 40
29.0
 40
29.0
 40
30.0
 40
30.0
 40
30.0
 40
31.0
 40
31.0
 40
31.0
 40
32.0
 40
32.0
 40
32.0
 40
33.0
 40
33.0
 40
33.0
 40
34.0
 40
34.0
 40
34.0
 40
35.0
 40
35.0
 40
35.0
 40
36.0
 40
36.0
 40
36.0
 40
37.0
 40
37.0
 40
37.0
 40
38.0
 40
38.0
 40
38.0
 40
39.0
 40
39.0
 40
39.0
 40
40.0
 40
40.0
 40
40.0
 40
40.0
 10
804.4064984510514
 20
650.7269995828392
 30
0.0
 10
804.4064984510514
 20
650.7269995828392
 30
0.0
 10
812.9099166563283
 20
650.7269995828392
 30
0.0
 10
812.9099166563283
 20
650.7269995828392
 30
0.0
 10
812.9099166563283
 20
650.7269995828392
 30
0.0
 10
812.9099166563283
 20
693.2454747135926
 30
0.0
 10
812.9099166563283
 20
693.2454747135926
 30
0.0
 10
812.9099166563283
 20
693.2454747135926
 30
0.0
 10
804.4064984510514
 20
693.2454747135926
 30
0.0
 10
804.4064984510514
 20
693.2454747135926
 30
0.0
 10
804.4064984510514
 20
693.2454747135926
 30
0.0
 10
804.4064984510514
 20
735.7655069617613
 30
0.0
 10
804.4064984510514
 20
735.7655069617613
 30
0.0
 10
804.4064984510514
 20
735.7655069617613
 30
0.0
 10
812.9099166563283
 20
735.7655069617613
 30
0.0
 10
812.9099166563283
 20
735.7655069617613
 30
0.0
 10
812.9099166563283
 20
735.7655069617613
 30
0.0
 10
812.9099166563283
 20
778.2857122229761
 30
0.0
 10
812.9099166563283
 20
778.2857122229761
 30
0.0
 10
812.9099166563283
 20
778.2857122229761
 30
0.0
 10
804.4064984510514
 20
778.2857122229761
 30
0.0
 10
804.4064984510514
 20
778.2857122229761
 30
0.0
 10
804.4064984510514
 20
778.2857122229761
 30
0.0
 10
804.4050278401592
 20
825.0578861063987
 30
0.0
 10
804.4050278401592
 20
825.0578861063987
 30
0.0
 10
804.4050278401592
 20
826.6283255263115
 30
0.0
 10
803.1409080184567
 20
827.8925318545371
 30
0.0
 10
801.5705551050669
 20
827.8925318545371
 30
0.0
 10
801.5705551050669
 20
827.8925318545371
 30
0.0
 10
754.7995923129674
 20
827.8925318545371
 30
0.0
 10
754.7995923129674
 20
827.8925318545371
 30
0.0
 10
754.7995923129674
 20
827.8925318545371
 30
0.0
 10
754.7995923129674
 20
836.3959500598139
 30
0.0
 10
754.7995923129674
 20
836.3959500598139
 30
0.0
 10
754.7995923129674
 20
836.3959500598139
 30
0.0
 10
712.2796033180603
 20
836.3959500598139
 30
0.0
 10
712.2796033180603
 20
836.3959500598139
 30
0.0
 10
712.2796033180603
 20
836.3959500598139
 30
0.0
 10
712.2796033180603
 20
827.8925318545371
 30
0.0
 10
712.2796033180603
 20
827.8925318545371
 30
0.0
 10
712.2796033180603
 20
827.8925318545371
 30
0.0
 10
669.75952781663
 20
827.8925318545371
 30
0.0
 10
669.75952781663
 20
827.8925318545371
 30
0.0
 10
669.75952781663
 20
827.8925318545371
 30
0.0
 10
669.75952781663
 20
836.3959500598139
 30
0.0
 10
669.75952781663
 20
836.3959500598139
 30
0.0
 10
669.75952781663
 20
836.3959500598139
 30
0.0
 10
627.2409661793536
 20
836.3959500598139
 30
0.0
 10
627.2409661793536
 20
836.3959500598139
 30
0.0
 10
627.2409661793536
 20
836.3959500598139
 30
0.0
 10
627.2409661793536
 20
827.8925318545371
 30
0.0
 10
627.2409661793536
 20
827.8925318545371
 30
0.0
 10
627.2409661793536
 20
827.8925318545371
 30
0.0
 10
580.4700033872541
 20
827.8925318545371
 30
0.0
 10
580.4700033872541
 20
827.8925318545371
 30
0.0
 10
578.8995639673412
 20
827.8925318545371
 30
0.0
 10
577.6341032945311
 20
826.6283255263115
 30
0.0
 10
577.6341032945311
 20
825.0578861063987
 30
0.0
 10
577.6341032945311
 20
825.0578861063987
 30
0.0
 10
577.6341032945311
 20
778.2857122229761
 30
0.0
 10
577.6341032945311
 20
778.2857122229761
 30
0.0
 10
577.6341032945311
 20
778.2857122229761
 30
0.0
 10
569.1307283425158
 20
778.2857122229761
 30
0.0
 10
569.1307283425158
 20
778.2857122229761
 30
0.0
 10
569.1307283425158
 20
778.2857122229761
 30
0.0
 10
569.1307283425158
 20
735.7655069617613
 30
0.0
 10
569.1307283425158
 20
735.7655069617613
 30
0.0
 10
569.1307283425158
 20
735.7655069617613
 30
0.0
 10
577.6341465477926
 20
735.7655069617613
 30
0.0
 10
577.6341465477926
 20
735.7655069617613
 30
0.0
 10
577.6341465477926
 20
735.7655069617613
 30
0.0
 10
577.6341465477926
 20
693.2454747135926
 30
0.0
 10
577.6341465477926
 20
693.2454747135926
 30
0.0
 10
577.6341465477926
 20
693.2454747135926
 30
0.0
 10
569.1307283425158
 20
693.2454747135926
 30
0.0
 10
569.1307283425158
 20
693.2454747135926
 30
0.0
 10
569.1307283425158
 20
693.2454747135926
 30
0.0
 10
569.1307283425158
 20
650.7269995828392
 30
0.0
 10
569.1307283425158
 20
650.7269995828392
 30
0.0
 10
569.1307283425158
 20
650.7269995828392
 30
0.0
 10
577.6341465477926
 20
650.7269995828392
 30
0.0
 10
577.6341465477926
 20
650.7269995828392
 30
0.0
 10
577.6341465477926
 20
650.7269995828392
 30
0.0
 10
577.6341465477926
 20
603.9546526863705
 30
0.0
 10
577.6341465477926
 20
603.9546526863705
 30
0.0
 10
577.6341465477926
 20
602.3842132664577
 30
0.0
 10
578.8996504738643
 20
601.1201799512783
 30
0.0
 10
580.4700466405156
 20
601.1201799512783
 30
0.0
 10
580.4700466405156
 20
601.1201799512783
 30
0.0
 10
627.2410094326151
 20
601.1201799512783
 30
0.0
 10
627.2410094326151
 20
601.1201799512783
 30
0.0
 10
627.2410094326151
 20
601.1201799512783
 30
0.0
 10
627.2410094326151
 20
592.6167617460014
 30
0.0
 10
627.2410094326151
 20
592.6167617460014
 30
0.0
 10
627.2410094326151
 20
592.6167617460014
 30
0.0
 10
669.7595710698915
 20
592.6167617460014
 30
0.0
 10
669.7595710698915
 20
592.6167617460014
 30
0.0
 10
669.7595710698915
 20
592.6167617460014
 30
0.0
 10
669.7595710698915
 20
601.1201799512783
 30
0.0
 10
669.7595710698915
 20
601.1201799512783
 30
0.0
 10
669.7595710698915
 20
601.1201799512783
 30
0.0
 10
712.2796465713218
 20
601.1201799512783
 30
0.0
 10
712.2796465713218
 20
601.1201799512783
 30
0.0
 10
712.2796465713218
 20
601.1201799512783
 30
0.0
 10
712.2796465713218
 20
592.6167617460014
 30
0.0
 10
712.2796465713218
 20
592.6167617460014
 30
0.0
 10
712.2796465713218
 20
592.6167617460014
 30
0.0
 10
754.7996788194905
 20
592.6167617460014
 30
0.0
 10
754.7996788194905
 20
592.6167617460014
 30
0.0
 10
754.7996788194905
 20
592.6167617460014
 30
0.0
 10
754.7996788194905
 20
601.1201799512783
 30
0.0
 10
754.7996788194905
 20
601.1201799512783
 30
0.0
 10
754.7996788194905
 20
601.1201799512783
 30
0.0
 10
801.57064161159
 20
601.1201799512783
 30
0.0
 10
801.57064161159
 20
601.1201799512783
 30
0.0
 10
803.1409945249798
 20
601.1201799512783
 30
0.0
 10
804.4051143466822
 20
602.3842132664577
 30
0.0
 10
804.4051143466822
 20
603.9546526863705
 30
0.0
 10
804.4051143466822
 20
603.9546526863705
 30
0.0
 10
804.4064984510514
 20
650.7269995828392
 30
0.0
 10
804.4064984510514
 20
650.7269995828392
 30
0.0
  0
INSERT
  5
68
330
45
100
AcDbEntity
  8
svg2
100
AcDbBlockReference
  2
block 11
 10
0.0
 20
0.0
 30
0.0
  0
ENDBLK
  5
48
330
45
100
AcDbEntity
  8
0
100
AcDbBlockEnd
  0
BLOCK
  5
4B
330
49
100
AcDbEntity
  8
0
100
AcDbBlockBegin
  2
block 4
 70
     0
 10
0.0
 20
0.0
 30
0.0
  3
block 4
  1

  0
ENDBLK
  5
4C
330
49
100
AcDbEntity
  8
0
100
AcDbBlockEnd
  0
BLOCK
  5
4F
330
4D
100
AcDbEntity
  8
0
100
AcDbBlockBegin
  2
block 5
 70
     0
 10
0.0
 20
0.0
 30
0.0
  3
block 5
  1

  0
ENDBLK
  5
50
330
4D
100
AcDbEntity
  8
0
100
AcDbBlockEnd
  0
BLOCK
  5
53
330
51
100
AcDbEntity
  8
0
100
AcDbBlockBegin
  2
block 6
 70
     0
 10
0.0
 20
0.0
 30
0.0
  3
block 6
  1

  0
ENDBLK
  5
54
330
51
100
AcDbEntity
  8
0
100
AcDbBlockEnd
  0
BLOCK
  5
57
330
55
100
AcDbEntity
  8
0
100
AcDbBlockBegin
  2
block 7
 70
     0
 10
0.0
 20
0.0
 30
0.0
  3
block 7
  1

  0
ENDBLK
  5
58
330
55
100
AcDbEntity
  8
0
100
AcDbBlockEnd
  0
BLOCK
  5
5B
330
59
100
AcDbEntity
  8
0
100
AcDbBlockBegin
  2
block 8
 70
     0
 10
0.0
 20
0.0
 30
0.0
  3
block 8
  1

  0
ENDBLK
  5
5C
330
59
100
AcDbEntity
  8
0
100
AcDbBlockEnd
  0
BLOCK
  5
5F
330
5D
100
AcDbEntity
  8
0
100
AcDbBlockBegin
  2
block 9
 70
     0
 10
0.0
 20
0.0
 30
0.0
  3
block 9
  1

  0
ENDBLK
  5
60
330
5D
100
AcDbEntity
  8
0
100
AcDbBlockEnd
  0
BLOCK
  5
63
330
61
100
AcDbEntity
  8
0
100
AcDbBlockBegin
  2
block 10
 70
     0
 10
0.0
 20
0.0
 30
0.0
  3
block 10
  1

  0
ENDBLK
  5
64
330
61
100
AcDbEntity
  8
0
100
AcDbBlockEnd
  0
BLOCK
  5
69
330
67
100
AcDbEntity
  8
0
100
AcDbBlockBegin
  2
block 11
 70
     0
 10
0.0
 20
0.0
 30
0.0
  3
block 11
  1

  0
INSERT
  5
6C
330
67
100
AcDbEntity
  8
svg2
100
AcDbBlockReference
  2
block 12
 10
0.0
 20
0.0
 30
0.0
  0
INSERT
  5
7E
330
67
100
AcDbEntity
  8
svg2
100
AcDbBlockReference
  2
block 13
 10
0.0
 20
0.0
 30
0.0
  0
POLYLINE
  5
81
330
67
100
AcDbEntity
  8
svg2
 62
     1
420
 16711680
370
    20
100
AcDb2dPolyline
 66
     1
 10
0.0
 20
0.0
 30
0.0
  0
VERTEX
  5
82
330
81
100
AcDbEntity
  8
svg2
 62
     1
420
 16711680
370
    20
100
AcDbVertex
100
AcDb2dVertex
 10
1299.220135129133
 20
1368.689542375141
 30
0.0
  0
VERTEX
  5
83
330
81
100
AcDbEntity
  8
svg2
 62
     1
420
 16711680
370
    20
100
AcDbVertex
100
AcDb2dVertex
 10
1317.645332492033
 20
1368.689542375141
 30
0.0
  0
VERTEX
  5
84
330
81
100
AcDbEntity
  8
svg2
 62
     1
420
 16711680
370
    20
100
AcDbVertex
100
AcDb2dVertex
 10
1317.645332492033
 20
1283.650169930988
 30
0.0
  0
VERTEX
  5
85
330
81
100
AcDbEntity
  8
svg2
 62
     1
420
 16711680
370
    20
100
AcDbVertex
100
AcDb2dVertex
 10
1299.220135129133
 20
1283.650169930988
 30
0.0
  0
VERTEX
  5
86
330
81
100
AcDbEntity
  8
svg2
 62
     1
420
 16711680
370
    20
100
AcDbVertex
100
AcDb2dVertex
 10
1299.220135129133
 20
1368.689542375141
 30
0.0
  0
SEQEND
  5
87
330
81
100
AcDbEntity
  8
svg2
 62
     1
420
 16711680
370
    20
  0
SPLINE
  5
88
330
67
100
AcDbEntity
  8
svg2
 62
     1
420
 16711680
370
    20
100
AcDbSpline
210
0.0
220
0.0
230
1.0
 70
     8
 71
     3
 72
    17
 73
    13
 74
     0
 42
0.0000000001
 43
0.0000000001
 12
1.0
 22
0.0
 32
0.0
 13
1.0
 23
0.0
 33
0.0
 40
0.0
 40
0.0
 40
0.0
 40
0.0
 40
1.0
 40
1.0
 40
1.0
 40
2.0
 40
2.0
 40
2.0
 40
3.0
 40
3.0
 40
3.0
 40
4.0
 40
4.0
 40
4.0
 40
4.0
 10
1186.542966640631
 20
1117.244492012469
 30
0.0
 10
1186.542966640631
 20
1222.240400291004
 30
0.0
 10
1274.364734892984
 20
1285.089811488011
 30
0.0
 10
1274.364734892984
 20
1368.689542375141
 30
0.0
 10
1274.364734892984
 20
1385.594474101512
 30
0.0
 10
1282.643755177403
 20
1399.298318447996
 30
0.0
 10
1308.432733810583
 20
1399.298318447996
 30
0.0
 10
1334.221712443763
 20
1399.298318447996
 30
0.0
 10
1342.500732728182
 20
1385.594474101512
 30
0.0
 10
1342.500732728182
 20
1368.689542375141
 30
0.0
 10
1342.500732728182
 20
1285.089811488011
 30
0.0
 10
1430.322500980536
 20
1222.240400291004
 30
0.0
 10
1430.322500980536
 20
1117.244492012469
 30
0.0
  0
POLYLINE
  5
89
330
67
100
AcDbEntity
  8
svg2
 62
     1
420
 16711680
370
    20
100
AcDb2dPolyline
 66
     1
 10
0.0
 20
0.0
 30
0.0
  0
VERTEX
  5
8A
330
89
100
AcDbEntity
  8
svg2
 62
     1
420
 16711680
370
    20
100
AcDbVertex
100
AcDb2dVertex
 10
959.7714798026027
 20
1117.244492012469
 30
0.0
  0
VERTEX
  5
8B
330
89
100
AcDbEntity
  8
svg2
 62
     1
420
 16711680
370
    20
100
AcDbVertex
100
AcDb2dVertex
 10
959.7714798026027
 20
1074.7244597643
 30
0.0
  0
VERTEX
  5
8C
330
89
100
AcDbEntity
  8
svg2
 62
     1
420
 16711680
370
    20
100
AcDbVertex
100
AcDb2dVertex
 10
951.2680615973259
 20
1074.7244597643
 30
0.0
  0
VERTEX
  5
8D
330
89
100
AcDbEntity
  8
svg2
 62
     1
420
 16711680
370
    20
100
AcDbVertex
100
AcDb2dVertex
 10
951.2680615973259
 20
1032.204427516132
 30
0.0
  0
VERTEX
  5
8E
330
89
100
AcDbEntity
  8
svg2
 62
     1
420
 16711680
370
    20
100
AcDbVertex
100
AcDb2dVertex
 10
959.7714798026027
 20
1032.204427516132
 30
0.0
  0
VERTEX
  5
8F
330
89
100
AcDbEntity
  8
svg2
 62
     1
420
 16711680
370
    20
100
AcDbVertex
100
AcDb2dVertex
 10
959.7714798026027
 20
989.6842222549167
 30
0.0
  0
VERTEX
  5
90
330
89
100
AcDbEntity
  8
svg2
 62
     1
420
 16711680
370
    20
100
AcDbVertex
100
AcDb2dVertex
 10
951.2680615973259
 20
989.6842222549167
 30
0.0
  0
VERTEX
  5
91
330
89
100
AcDbEntity
  8
svg2
 62
     1
420
 16711680
370
    20
100
AcDbVertex
100
AcDb2dVertex
 10
951.2680615973259
 20
947.1657471241633
 30
0.0
  0
VERTEX
  5
92
330
89
100
AcDbEntity
  8
svg2
 62
     1
420
 16711680
370
    20
100
AcDbVertex
100
AcDb2dVertex
 10
959.7714798026027
 20
947.1657471241633
 30
0.0
  0
VERTEX
  5
93
330
89
100
AcDbEntity
  8
svg2
 62
     1
420
 16711680
370
    20
100
AcDbVertex
100
AcDb2dVertex
 10
959.7714798026027
 20
904.6458013825177
 30
0.0
  0
VERTEX
  5
94
330
89
100
AcDbEntity
  8
svg2
 62
     1
420
 16711680
370
    20
100
AcDbVertex
100
AcDb2dVertex
 10
951.2680615973259
 20
904.6458013825177
 30
0.0
  0
VERTEX
  5
95
330
89
100
AcDbEntity
  8
svg2
 62
     1
420
 16711680
370
    20
100
AcDbVertex
100
AcDb2dVertex
 10
951.2680615973259
 20
862.125855640872
 30
0.0
  0
VERTEX
  5
96
330
89
100
AcDbEntity
  8
svg2
 62
     1
420
 16711680
370
    20
100
AcDbVertex
100
AcDb2dVertex
 10
959.7714798026027
 20
862.125855640872
 30
0.0
  0
VERTEX
  5
97
330
89
100
AcDbEntity
  8
svg2
 62
     1
420
 16711680
370
    20
100
AcDbVertex
100
AcDb2dVertex
 10
959.7714798026027
 20
819.6059098992264
 30
0.0
  0
VERTEX
  5
98
330
89
100
AcDbEntity
  8
svg2
 62
     1
420
 16711680
370
    20
100
AcDbVertex
100
AcDb2dVertex
 10
951.2680615973259
 20
819.6059098992264
 30
0.0
  0
VERTEX
  5
99
330
89
100
AcDbEntity
  8
svg2
 62
     1
420
 16711680
370
    20
100
AcDbVertex
100
AcDb2dVertex
 10
951.2680615973259
 20
777.08734826195
 30
0.0
  0
VERTEX
  5
9A
330
89
100
AcDbEntity
  8
svg2
 62
     1
420
 16711680
370
    20
100
AcDbVertex
100
AcDb2dVertex
 10
959.7714798026027
 20
777.08734826195
 30
0.0
  0
VERTEX
  5
9B
330
89
100
AcDbEntity
  8
svg2
 62
     1
420
 16711680
370
    20
100
AcDbVertex
100
AcDb2dVertex
 10
959.7714798026027
 20
734.5674025203043
 30
0.0
  0
VERTEX
  5
9C
330
89
100
AcDbEntity
  8
svg2
 62
     1
420
 16711680
370
    20
100
AcDbVertex
100
AcDb2dVertex
 10
951.2680615973259
 20
734.5674025203043
 30
0.0
  0
VERTEX
  5
9D
330
89
100
AcDbEntity
  8
svg2
 62
     1
420
 16711680
370
    20
100
AcDbVertex
100
AcDb2dVertex
 10
951.2680615973259
 20
692.0474567786587
 30
0.0
  0
VERTEX
  5
9E
330
89
100
AcDbEntity
  8
svg2
 62
     1
420
 16711680
370
    20
100
AcDbVertex
100
AcDb2dVertex
 10
959.7714798026027
 20
692.0474567786587
 30
0.0
  0
VERTEX
  5
9F
330
89
100
AcDbEntity
  8
svg2
 62
     1
420
 16711680
370
    20
100
AcDbVertex
100
AcDb2dVertex
 10
959.7714798026027
 20
649.5271650109207
 30
0.0
  0
VERTEX
  5
A0
330
89
100
AcDbEntity
  8
svg2
 62
     1
420
 16711680
370
    20
100
AcDbVertex
100
AcDb2dVertex
 10
951.2680615973259
 20
649.5271650109207
 30
0.0
  0
VERTEX
  5
A1
330
89
100
AcDbEntity
  8
svg2
 62
     1
420
 16711680
370
    20
100
AcDbVertex
100
AcDb2dVertex
 10
951.2680615973259
 20
607.0086033736443
 30
0.0
  0
VERTEX
  5
A2
330
89
100
AcDbEntity
  8
svg2
 62
     1
420
 16711680
370
    20
100
AcDbVertex
100
AcDb2dVertex
 10
959.7714798026027
 20
607.0086033736443
 30
0.0
  0
VERTEX
  5
A3
330
89
100
AcDbEntity
  8
svg2
 62
     1
420
 16711680
370
    20
100
AcDbVertex
100
AcDb2dVertex
 10
959.7714798026027
 20
564.4886576319986
 30
0.0
  0
VERTEX
  5
A4
330
89
100
AcDbEntity
  8
svg2
 62
     1
420
 16711680
370
    20
100
AcDbVertex
100
AcDb2dVertex
 10
951.2680615973259
 20
564.4886576319986
 30
0.0
  0
VERTEX
  5
A5
330
89
100
AcDbEntity
  8
svg2
 62
     1
420
 16711680
370
    20
100
AcDbVertex
100
AcDb2dVertex
 10
951.2680615973259
 20
521.968711890353
 30
0.0
  0
VERTEX
  5
A6
330
89
100
AcDbEntity
  8
svg2
 62
     1
420
 16711680
370
    20
100
AcDbVertex
100
AcDb2dVertex
 10
959.7714798026027
 20
521.968711890353
 30
0.0
  0
VERTEX
  5
A7
330
89
100
AcDbEntity
  8
svg2
 62
     1
420
 16711680
370
    20
100
AcDbVertex
100
AcDb2dVertex
 10
959.7714798026027
 20
479.4487661487074
 30
0.0
  0
VERTEX
  5
A8
330
89
100
AcDbEntity
  8
svg2
 62
     1
420
 16711680
370
    20
100
AcDbVertex
100
AcDb2dVertex
 10
951.2680615973259
 20
479.4487661487074
 30
0.0
  0
VERTEX
  5
A9
330
89
100
AcDbEntity
  8
svg2
 62
     1
420
 16711680
370
    20
100
AcDbVertex
100
AcDb2dVertex
 10
951.2680615973259
 20
436.9288204070617
 30
0.0
  0
VERTEX
  5
AA
330
89
100
AcDbEntity
  8
svg2
 62
     1
420
 16711680
370
    20
100
AcDbVertex
100
AcDb2dVertex
 10
959.7714798026027
 20
436.9288204070617
 30
0.0
  0
VERTEX
  5
AB
330
89
100
AcDbEntity
  8
svg2
 62
     1
420
 16711680
370
    20
100
AcDbVertex
100
AcDb2dVertex
 10
959.7714798026027
 20
394.4101722632622
 30
0.0
  0
VERTEX
  5
AC
330
89
100
AcDbEntity
  8
svg2
 62
     1
420
 16711680
370
    20
100
AcDbVertex
100
AcDb2dVertex
 10
951.2680615973259
 20
394.4101722632622
 30
0.0
  0
VERTEX
  5
AD
330
89
100
AcDbEntity
  8
svg2
 62
     1
420
 16711680
370
    20
100
AcDbVertex
100
AcDb2dVertex
 10
951.2680615973259
 20
351.8901400150935
 30
0.0
  0
VERTEX
  5
AE
330
89
100
AcDbEntity
  8
svg2
 62
     1
420
 16711680
370
    20
100
AcDbVertex
100
AcDb2dVertex
 10
959.7714798026027
 20
351.8901400150935
 30
0.0
  0
VERTEX
  5
AF
330
89
100
AcDbEntity
  8
svg2
 62
     1
420
 16711680
370
    20
100
AcDbVertex
100
AcDb2dVertex
 10
959.7714798026027
 20
309.3699347538786
 30
0.0
  0
VERTEX
  5
B0
330
89
100
AcDbEntity
  8
svg2
 62
     1
420
 16711680
370
    20
100
AcDbVertex
100
AcDb2dVertex
 10
951.2680615973259
 20
309.3699347538786
 30
0.0
  0
VERTEX
  5
B1
330
89
100
AcDbEntity
  8
svg2
 62
     1
420
 16711680
370
    20
100
AcDbVertex
100
AcDb2dVertex
 10
951.2680615973259
 20
266.8499025057099
 30
0.0
  0
VERTEX
  5
B2
330
89
100
AcDbEntity
  8
svg2
 62
     1
420
 16711680
370
    20
100
AcDbVertex
100
AcDb2dVertex
 10
959.7714798026027
 20
266.8499025057099
 30
0.0
  0
VERTEX
  5
B3
330
89
100
AcDbEntity
  8
svg2
 62
     1
420
 16711680
370
    20
100
AcDbVertex
100
AcDb2dVertex
 10
959.7714798026027
 20
238.5037045438949
 30
0.0
  0
SEQEND
  5
B4
330
89
100
AcDbEntity
  8
svg2
 62
     1
420
 16711680
370
    20
  0
SPLINE
  5
B5
330
67
100
AcDbEntity
  8
svg2
 62
     1
420
 16711680
370
    20
100
AcDbSpline
210
0.0
220
0.0
230
1.0
 70
     8
 71
     3
 72
    17
 73
    13
 74
     0
 42
0.0000000001
 43
0.0000000001
 12
1.0
 22
0.0
 32
0.0
 13
1.0
 23
0.0
 33
0.0
 40
0.0
 40
0.0
 40
0.0
 40
0.0
 40
1.0
 40
1.0
 40
1.0
 40
2.0
 40
2.0
 40
2.0
 40
3.0
 40
3.0
 40
3.0
 40
4.0
 40
4.0
 40
4.0
 40
4.0
 10
959.7714798026027
 20
238.5037910504179
 30
0.0
 10
959.7714798026027
 20
238.5037910504179
 30
0.0
 10
969.4652277653986
 20
238.5037910504179
 30
0.0
 10
969.4652277653986
 20
238.5037910504179
 30
0.0
 10
988.3627507442907
 20
238.5037910504179
 30
0.0
 10
1010.013776352676
 20
249.5047390834079
 30
0.0
 10
1073.15730972814
 20
249.5047390834079
 30
0.0
 10
1136.301016116649
 20
249.5047390834079
 30
0.0
 10
1157.953425829404
 20
238.5037910504179
 30
0.0
 10
1176.850948808296
 20
238.5037910504179
 30
0.0
 10
1176.850948808296
 20
238.5037910504179
 30
0.0
 10
1186.543139653677
 20
238.5037910504179
 30
0.0
 10
1186.543139653677
 20
238.5037910504179
 30
0.0
  0
POLYLINE
  5
B6
330
67
100
AcDbEntity
  8
svg2
 62
     1
420
 16711680
370
    20
100
AcDb2dPolyline
 66
     1
 10
0.0
 20
0.0
 30
0.0
  0
VERTEX
  5
B7
330
B6
100
AcDbEntity
  8
svg2
 62
     1
420
 16711680
370
    20
100
AcDbVertex
100
AcDb2dVertex
 10
1186.542447601492
 20
238.5040505699872
 30
0.0
  0
VERTEX
  5
B8
330
B6
100
AcDbEntity
  8
svg2
 62
     1
420
 16711680
370
    20
100
AcDbVertex
100
AcDb2dVertex
 10
1186.542447601492
 20
266.8502485318022
 30
0.0
  0
VERTEX
  5
B9
330
B6
100
AcDbEntity
  8
svg2
 62
     1
420
 16711680
370
    20
100
AcDbVertex
100
AcDb2dVertex
 10
1195.047422924185
 20
266.8502485318022
 30
0.0
  0
VERTEX
  5
BA
330
B6
100
AcDbEntity
  8
svg2
 62
     1
420
 16711680
370
    20
100
AcDbVertex
100
AcDb2dVertex
 10
1195.047422924185
 20
309.3702807799709
 30
0.0
  0
VERTEX
  5
BB
330
B6
100
AcDbEntity
  8
svg2
 62
     1
420
 16711680
370
    20
100
AcDbVertex
100
AcDb2dVertex
 10
1186.542447601492
 20
309.3702807799709
 30
0.0
  0
VERTEX
  5
BC
330
B6
100
AcDbEntity
  8
svg2
 62
     1
420
 16711680
370
    20
100
AcDbVertex
100
AcDb2dVertex
 10
1186.542447601492
 20
351.8903130281396
 30
0.0
  0
VERTEX
  5
BD
330
B6
100
AcDbEntity
  8
svg2
 62
     1
420
 16711680
370
    20
100
AcDbVertex
100
AcDb2dVertex
 10
1195.047422924185
 20
351.8903130281396
 30
0.0
  0
VERTEX
  5
BE
330
B6
100
AcDbEntity
  8
svg2
 62
     1
420
 16711680
370
    20
100
AcDbVertex
100
AcDb2dVertex
 10
1195.047422924185
 20
394.4103452763084
 30
0.0
  0
VERTEX
  5
BF
330
B6
100
AcDbEntity
  8
svg2
 62
     1
420
 16711680
370
    20
100
AcDbVertex
100
AcDb2dVertex
 10
1186.542447601492
 20
394.4103452763084
 30
0.0
  0
VERTEX
  5
C0
330
B6
100
AcDbEntity
  8
svg2
 62
     1
420
 16711680
370
    20
100
AcDbVertex
100
AcDb2dVertex
 10
1186.542447601492
 20
436.9289934201079
 30
0.0
  0
VERTEX
  5
C1
330
B6
100
AcDbEntity
  8
svg2
 62
     1
420
 16711680
370
    20
100
AcDbVertex
100
AcDb2dVertex
 10
1195.047422924185
 20
436.9289934201079
 30
0.0
  0
VERTEX
  5
C2
330
B6
100
AcDbEntity
  8
svg2
 62
     1
420
 16711680
370
    20
100
AcDbVertex
100
AcDb2dVertex
 10
1195.047422924185
 20
479.4489391617535
 30
0.0
  0
VERTEX
  5
C3
330
B6
100
AcDbEntity
  8
svg2
 62
     1
420
 16711680
370
    20
100
AcDbVertex
100
AcDb2dVertex
 10
1186.542447601492
 20
479.4489391617535
 30
0.0
  0
VERTEX
  5
C4
330
B6
100
AcDbEntity
  8
svg2
 62
     1
420
 16711680
370
    20
100
AcDbVertex
100
AcDb2dVertex
 10
1186.542447601492
 20
521.9688849033992
 30
0.0
  0
VERTEX
  5
C5
330
B6
100
AcDbEntity
  8
svg2
 62
     1
420
 16711680
370
    20
100
AcDbVertex
100
AcDb2dVertex
 10
1195.047422924185
 20
521.9688849033992
 30
0.0
  0
VERTEX
  5
C6
330
B6
100
AcDbEntity
  8
svg2
 62
     1
420
 16711680
370
    20
100
AcDbVertex
100
AcDb2dVertex
 10
1195.047422924185
 20
564.4888306450448
 30
0.0
  0
VERTEX
  5
C7
330
B6
100
AcDbEntity
  8
svg2
 62
     1
420
 16711680
370
    20
100
AcDbVertex
100
AcDb2dVertex
 10
1186.542447601492
 20
564.4888306450448
 30
0.0
  0
VERTEX
  5
C8
330
B6
100
AcDbEntity
  8
svg2
 62
     1
420
 16711680
370
    20
100
AcDbVertex
100
AcDb2dVertex
 10
1186.542447601492
 20
607.0087763866904
 30
0.0
  0
VERTEX
  5
C9
330
B6
100
AcDbEntity
  8
svg2
 62
     1
420
 16711680
370
    20
100
AcDbVertex
100
AcDb2dVertex
 10
1195.047422924185
 20
607.0087763866904
 30
0.0
  0
VERTEX
  5
CA
330
B6
100
AcDbEntity
  8
svg2
 62
     1
420
 16711680
370
    20
100
AcDbVertex
100
AcDb2dVertex
 10
1195.047422924185
 20
649.5273380239669
 30
0.0
  0
VERTEX
  5
CB
330
B6
100
AcDbEntity
  8
svg2
 62
     1
420
 16711680
370
    20
100
AcDbVertex
100
AcDb2dVertex
 10
1186.542447601492
 20
649.5273380239669
 30
0.0
  0
VERTEX
  5
CC
330
B6
100
AcDbEntity
  8
svg2
 62
     1
420
 16711680
370
    20
100
AcDbVertex
100
AcDb2dVertex
 10
1186.542447601492
 20
692.0476297917048
 30
0.0
  0
VERTEX
  5
CD
330
B6
100
AcDbEntity
  8
svg2
 62
     1
420
 16711680
370
    20
100
AcDbVertex
100
AcDb2dVertex
 10
1195.047422924185
 20
692.0476297917048
 30
0.0
  0
VERTEX
  5
CE
330
B6
100
AcDbEntity
  8
svg2
 62
     1
420
 16711680
370
    20
100
AcDbVertex
100
AcDb2dVertex
 10
1195.047422924185
 20
734.5675755333505
 30
0.0
  0
VERTEX
  5
CF
330
B6
100
AcDbEntity
  8
svg2
 62
     1
420
 16711680
370
    20
100
AcDbVertex
100
AcDb2dVertex
 10
1186.542447601492
 20
734.5675755333505
 30
0.0
  0
VERTEX
  5
D0
330
B6
100
AcDbEntity
  8
svg2
 62
     1
420
 16711680
370
    20
100
AcDbVertex
100
AcDb2dVertex
 10
1186.542447601492
 20
777.0875212749961
 30
0.0
  0
VERTEX
  5
D1
330
B6
100
AcDbEntity
  8
svg2
 62
     1
420
 16711680
370
    20
100
AcDbVertex
100
AcDb2dVertex
 10
1195.047422924185
 20
777.0875212749961
 30
0.0
  0
VERTEX
  5
D2
330
B6
100
AcDbEntity
  8
svg2
 62
     1
420
 16711680
370
    20
100
AcDbVertex
100
AcDb2dVertex
 10
1195.047422924185
 20
819.6060829122725
 30
0.0
  0
VERTEX
  5
D3
330
B6
100
AcDbEntity
  8
svg2
 62
     1
420
 16711680
370
    20
100
AcDbVertex
100
AcDb2dVertex
 10
1186.542447601492
 20
819.6060829122725
 30
0.0
  0
VERTEX
  5
D4
330
B6
100
AcDbEntity
  8
svg2
 62
     1
420
 16711680
370
    20
100
AcDbVertex
100
AcDb2dVertex
 10
1186.542447601492
 20
862.1260286539182
 30
0.0
  0
VERTEX
  5
D5
330
B6
100
AcDbEntity
  8
svg2
 62
     1
420
 16711680
370
    20
100
AcDbVertex
100
AcDb2dVertex
 10
1195.047422924185
 20
862.1260286539182
 30
0.0
  0
VERTEX
  5
D6
330
B6
100
AcDbEntity
  8
svg2
 62
     1
420
 16711680
370
    20
100
AcDbVertex
100
AcDb2dVertex
 10
1195.047422924185
 20
904.6459743955638
 30
0.0
  0
VERTEX
  5
D7
330
B6
100
AcDbEntity
  8
svg2
 62
     1
420
 16711680
370
    20
100
AcDbVertex
100
AcDb2dVertex
 10
1186.542447601492
 20
904.6459743955638
 30
0.0
  0
VERTEX
  5
D8
330
B6
100
AcDbEntity
  8
svg2
 62
     1
420
 16711680
370
    20
100
AcDbVertex
100
AcDb2dVertex
 10
1186.542447601492
 20
947.1659201372095
 30
0.0
  0
VERTEX
  5
D9
330
B6
100
AcDbEntity
  8
svg2
 62
     1
420
 16711680
370
    20
100
AcDbVertex
100
AcDb2dVertex
 10
1195.047422924185
 20
947.1659201372095
 30
0.0
  0
VERTEX
  5
DA
330
B6
100
AcDbEntity
  8
svg2
 62
     1
420
 16711680
370
    20
100
AcDbVertex
100
AcDb2dVertex
 10
1195.047422924185
 20
989.6843952679628
 30
0.0
  0
VERTEX
  5
DB
330
B6
100
AcDbEntity
  8
svg2
 62
     1
420
 16711680
370
    20
100
AcDbVertex
100
AcDb2dVertex
 10
1186.542447601492
 20
989.6843952679628
 30
0.0
  0
VERTEX
  5
DC
330
B6
100
AcDbEntity
  8
svg2
 62
     1
420
 16711680
370
    20
100
AcDbVertex
100
AcDb2dVertex
 10
1186.542447601492
 20
1032.204600529178
 30
0.0
  0
VERTEX
  5
DD
330
B6
100
AcDbEntity
  8
svg2
 62
     1
420
 16711680
370
    20
100
AcDbVertex
100
AcDb2dVertex
 10
1195.047422924185
 20
1032.204600529178
 30
0.0
  0
VERTEX
  5
DE
330
B6
100
AcDbEntity
  8
svg2
 62
     1
420
 16711680
370
    20
100
AcDbVertex
100
AcDb2dVertex
 10
1195.047422924185
 20
1074.724632777346
 30
0.0
  0
VERTEX
  5
DF
330
B6
100
AcDbEntity
  8
svg2
 62
     1
420
 16711680
370
    20
100
AcDbVertex
100
AcDb2dVertex
 10
1186.542447601492
 20
1074.724632777346
 30
0.0
  0
VERTEX
  5
E0
330
B6
100
AcDbEntity
  8
svg2
 62
     1
420
 16711680
370
    20
100
AcDbVertex
100
AcDb2dVertex
 10
1186.542447601492
 20
1117.244665025515
 30
0.0
  0
SEQEND
  5
E1
330
B6
100
AcDbEntity
  8
svg2
 62
     1
420
 16711680
370
    20
  0
POLYLINE
  5
E2
330
67
100
AcDbEntity
  8
svg2
 62
     1
420
 16711680
370
    20
100
AcDb2dPolyline
 66
     1
 10
0.0
 20
0.0
 30
0.0
  0
VERTEX
  5
E3
330
E2
100
AcDbEntity
  8
svg2
 62
     1
420
 16711680
370
    20
100
AcDbVertex
100
AcDb2dVertex
 10
1051.897293604055
 20
258.3466573134792
 30
0.0
  0
VERTEX
  5
E4
330
E2
100
AcDbEntity
  8
svg2
 62
     1
420
 16711680
370
    20
100
AcDbVertex
100
AcDb2dVertex
 10
1051.897293604055
 20
266.5671126817761
 30
0.0
  0
VERTEX
  5
E5
330
E2
100
AcDbEntity
  8
svg2
 62
     1
420
 16711680
370
    20
100
AcDbVertex
100
AcDb2dVertex
 10
1009.377607381979
 20
266.5671126817761
 30
0.0
  0
VERTEX
  5
E6
330
E2
100
AcDbEntity
  8
svg2
 62
     1
420
 16711680
370
    20
100
AcDbVertex
100
AcDb2dVertex
 10
1009.377607381979
 20
258.3466573134792
 30
0.0
  0
VERTEX
  5
E7
330
E2
100
AcDbEntity
  8
svg2
 62
     1
420
 16711680
370
    20
100
AcDbVertex
100
AcDb2dVertex
 10
1051.897293604055
 20
258.3466573134792
 30
0.0
  0
SEQEND
  5
E8
330
E2
100
AcDbEntity
  8
svg2
 62
     1
420
 16711680
370
    20
  0
POLYLINE
  5
E9
330
67
100
AcDbEntity
  8
svg2
 62
     1
420
 16711680
370
    20
100
AcDb2dPolyline
 66
     1
 10
0.0
 20
0.0
 30
0.0
  0
VERTEX
  5
EA
330
E9
100
AcDbEntity
  8
svg2
 62
     1
420
 16711680
370
    20
100
AcDbVertex
100
AcDb2dVertex
 10
1136.936666048208
 20
258.3466573134792
 30
0.0
  0
VERTEX
  5
EB
330
E9
100
AcDbEntity
  8
svg2
 62
     1
420
 16711680
370
    20
100
AcDbVertex
100
AcDb2dVertex
 10
1136.936666048208
 20
266.5671126817761
 30
0.0
  0
VERTEX
  5
EC
330
E9
100
AcDbEntity
  8
svg2
 62
     1
420
 16711680
370
    20
100
AcDbVertex
100
AcDb2dVertex
 10
1094.416979826132
 20
266.5671126817761
 30
0.0
  0
VERTEX
  5
ED
330
E9
100
AcDbEntity
  8
svg2
 62
     1
420
 16711680
370
    20
100
AcDbVertex
100
AcDb2dVertex
 10
1094.416979826132
 20
258.3466573134792
 30
0.0
  0
VERTEX
  5
EE
330
E9
100
AcDbEntity
  8
svg2
 62
     1
420
 16711680
370
    20
100
AcDbVertex
100
AcDb2dVertex
 10
1136.936666048208
 20
258.3466573134792
 30
0.0
  0
SEQEND
  5
EF
330
E9
100
AcDbEntity
  8
svg2
 62
     1
420
 16711680
370
    20
  0
POLYLINE
  5
F0
330
67
100
AcDbEntity
  8
svg2
 62
     1
420
 16711680
370
    20
100
AcDb2dPolyline
 66
     1
 10
0.0
 20
0.0
 30
0.0
  0
VERTEX
  5
F1
330
F0
100
AcDbEntity
  8
svg2
 62
     1
420
 16711680
370
    20
100
AcDbVertex
100
AcDb2dVertex
 10
959.7714798026027
 20
1309.691747611549
 30
0.0
  0
VERTEX
  5
F2
330
F0
100
AcDbEntity
  8
svg2
 62
     1
420
 16711680
370
    20
100
AcDbVertex
100
AcDb2dVertex
 10
959.7714798026027
 20
1117.244492012469
 30
0.0
  0
SEQEND
  5
F3
330
F0
100
AcDbEntity
  8
svg2
 62
     1
420
 16711680
370
    20
  0
POLYLINE
  5
F4
330
67
100
AcDbEntity
  8
svg2
 62
     1
420
 16711680
370
    20
100
AcDb2dPolyline
 66
     1
 10
0.0
 20
0.0
 30
0.0
  0
VERTEX
  5
F5
330
F4
100
AcDbEntity
  8
svg2
 62
     1
420
 16711680
370
    20
100
AcDbVertex
100
AcDb2dVertex
 10
1186.542966640631
 20
1309.691747611549
 30
0.0
  0
VERTEX
  5
F6
330
F4
100
AcDbEntity
  8
svg2
 62
     1
420
 16711680
370
    20
100
AcDbVertex
100
AcDb2dVertex
 10
1186.542966640631
 20
1117.244492012469
 30
0.0
  0
SEQEND
  5
F7
330
F4
100
AcDbEntity
  8
svg2
 62
     1
420
 16711680
370
    20
  0
INSERT
  5
F9
330
67
100
AcDbEntity
  8
svg2
100
AcDbBlockReference
  2
block 14
 10
0.0
 20
0.0
 30
0.0
  0
INSERT
  5
103
330
67
100
AcDbEntity
  8
svg2
100
AcDbBlockReference
  2
block 15
 10
0.0
 20
0.0
 30
0.0
  0
INSERT
  5
10D
330
67
100
AcDbEntity
  8
svg2
100
AcDbBlockReference
  2
block 16
 10
0.0
 20
0.0
 30
0.0
  0
INSERT
  5
11B
330
67
100
AcDbEntity
  8
svg2
100
AcDbBlockReference
  2
block 18
 10
0.0
 20
0.0
 30
0.0
  0
SPLINE
  5
21A
330
67
100
AcDbEntity
  8
svg2
 62
     1
420
 16711680
370
    20
100
AcDbSpline
210
0.0
220
0.0
230
1.0
 70
     8
 71
     3
 72
    17
 73
    13
 74
     0
 42
0.0000000001
 43
0.0000000001
 12
1.0
 22
0.0
 32
0.0
 13
1.0
 23
0.0
 33
0.0
 40
0.0
 40
0.0
 40
0.0
 40
0.0
 40
1.0
 40
1.0
 40
1.0
 40
2.0
 40
2.0
 40
2.0
 40
3.0
 40
3.0
 40
3.0
 40
4.0
 40
4.0
 40
4.0
 40
4.0
 10
1195.047422924185
 20
238.5040505699872
 30
0.0
 10
1195.047422924185
 20
238.5040505699872
 30
0.0
 10
1204.74117088698
 20
238.5040505699872
 30
0.0
 10
1204.74117088698
 20
238.5040505699872
 30
0.0
 10
1223.638693865872
 20
238.5040505699872
 30
0.0
 10
1245.289719474258
 20
249.5049986029771
 30
0.0
 10
1308.433252849722
 20
249.5049986029771
 30
0.0
 10
1371.576959238231
 20
249.5049986029771
 30
0.0
 10
1393.229368950986
 20
238.5040505699872
 30
0.0
 10
1412.126891929878
 20
238.5040505699872
 30
0.0
 10
1412.126891929878
 20
238.5040505699872
 30
0.0
 10
1421.819082775259
 20
238.5040505699872
 30
0.0
 10
1421.819082775259
 20
238.5040505699872
 30
0.0
  0
POLYLINE
  5
21B
330
67
100
AcDbEntity
  8
svg2
 62
     1
420
 16711680
370
    20
100
AcDb2dPolyline
 66
     1
 10
0.0
 20
0.0
 30
0.0
  0
VERTEX
  5
21C
330
21B
100
AcDbEntity
  8
svg2
 62
     1
420
 16711680
370
    20
100
AcDbVertex
100
AcDb2dVertex
 10
1430.324058097951
 20
238.5040505699872
 30
0.0
  0
VERTEX
  5
21D
330
21B
100
AcDbEntity
  8
svg2
 62
     1
420
 16711680
370
    20
100
AcDbVertex
100
AcDb2dVertex
 10
1430.324058097951
 20
266.8502485318022
 30
0.0
  0
VERTEX
  5
21E
330
21B
100
AcDbEntity
  8
svg2
 62
     1
420
 16711680
370
    20
100
AcDbVertex
100
AcDb2dVertex
 10
1421.819082775259
 20
266.8502485318022
 30
0.0
  0
VERTEX
  5
21F
330
21B
100
AcDbEntity
  8
svg2
 62
     1
420
 16711680
370
    20
100
AcDbVertex
100
AcDb2dVertex
 10
1421.819082775259
 20
309.3702807799709
 30
0.0
  0
VERTEX
  5
220
330
21B
100
AcDbEntity
  8
svg2
 62
     1
420
 16711680
370
    20
100
AcDbVertex
100
AcDb2dVertex
 10
1430.324058097951
 20
309.3702807799709
 30
0.0
  0
VERTEX
  5
221
330
21B
100
AcDbEntity
  8
svg2
 62
     1
420
 16711680
370
    20
100
AcDbVertex
100
AcDb2dVertex
 10
1430.324058097951
 20
351.8903130281396
 30
0.0
  0
VERTEX
  5
222
330
21B
100
AcDbEntity
  8
svg2
 62
     1
420
 16711680
370
    20
100
AcDbVertex
100
AcDb2dVertex
 10
1421.819082775259
 20
351.8903130281396
 30
0.0
  0
VERTEX
  5
223
330
21B
100
AcDbEntity
  8
svg2
 62
     1
420
 16711680
370
    20
100
AcDbVertex
100
AcDb2dVertex
 10
1421.819082775259
 20
394.4103452763084
 30
0.0
  0
VERTEX
  5
224
330
21B
100
AcDbEntity
  8
svg2
 62
     1
420
 16711680
370
    20
100
AcDbVertex
100
AcDb2dVertex
 10
1430.324058097951
 20
394.4103452763084
 30
0.0
  0
VERTEX
  5
225
330
21B
100
AcDbEntity
  8
svg2
 62
     1
420
 16711680
370
    20
100
AcDbVertex
100
AcDb2dVertex
 10
1430.324058097951
 20
436.9289934201079
 30
0.0
  0
VERTEX
  5
226
330
21B
100
AcDbEntity
  8
svg2
 62
     1
420
 16711680
370
    20
100
AcDbVertex
100
AcDb2dVertex
 10
1421.819082775259
 20
436.9289934201079
 30
0.0
  0
VERTEX
  5
227
330
21B
100
AcDbEntity
  8
svg2
 62
     1
420
 16711680
370
    20
100
AcDbVertex
100
AcDb2dVertex
 10
1421.819082775259
 20
479.4489391617535
 30
0.0
  0
VERTEX
  5
228
330
21B
100
AcDbEntity
  8
svg2
 62
     1
420
 16711680
370
    20
100
AcDbVertex
100
AcDb2dVertex
 10
1430.324058097951
 20
479.4489391617535
 30
0.0
  0
VERTEX
  5
229
330
21B
100
AcDbEntity
  8
svg2
 62
     1
420
 16711680
370
    20
100
AcDbVertex
100
AcDb2dVertex
 10
1430.324058097951
 20
521.9688849033992
 30
0.0
  0
VERTEX
  5
22A
330
21B
100
AcDbEntity
  8
svg2
 62
     1
420
 16711680
370
    20
100
AcDbVertex
100
AcDb2dVertex
 10
1421.819082775259
 20
521.9688849033992
 30
0.0
  0
VERTEX
  5
22B
330
21B
100
AcDbEntity
  8
svg2
 62
     1
420
 16711680
370
    20
100
AcDbVertex
100
AcDb2dVertex
 10
1421.819082775259
 20
564.4888306450448
 30
0.0
  0
VERTEX
  5
22C
330
21B
100
AcDbEntity
  8
svg2
 62
     1
420
 16711680
370
    20
100
AcDbVertex
100
AcDb2dVertex
 10
1430.324058097951
 20
564.4888306450448
 30
0.0
  0
VERTEX
  5
22D
330
21B
100
AcDbEntity
  8
svg2
 62
     1
420
 16711680
370
    20
100
AcDbVertex
100
AcDb2dVertex
 10
1430.324058097951
 20
607.0087763866904
 30
0.0
  0
VERTEX
  5
22E
330
21B
100
AcDbEntity
  8
svg2
 62
     1
420
 16711680
370
    20
100
AcDbVertex
100
AcDb2dVertex
 10
1421.819082775259
 20
607.0087763866904
 30
0.0
  0
VERTEX
  5
22F
330
21B
100
AcDbEntity
  8
svg2
 62
     1
420
 16711680
370
    20
100
AcDbVertex
100
AcDb2dVertex
 10
1421.819082775259
 20
649.5273380239669
 30
0.0
  0
VERTEX
  5
230
330
21B
100
AcDbEntity
  8
svg2
 62
     1
420
 16711680
370
    20
100
AcDbVertex
100
AcDb2dVertex
 10
1430.324058097951
 20
649.5273380239669
 30
0.0
  0
VERTEX
  5
231
330
21B
100
AcDbEntity
  8
svg2
 62
     1
420
 16711680
370
    20
100
AcDbVertex
100
AcDb2dVertex
 10
1430.324058097951
 20
692.0476297917048
 30
0.0
  0
VERTEX
  5
232
330
21B
100
AcDbEntity
  8
svg2
 62
     1
420
 16711680
370
    20
100
AcDbVertex
100
AcDb2dVertex
 10
1421.819082775259
 20
692.0476297917048
 30
0.0
  0
VERTEX
  5
233
330
21B
100
AcDbEntity
  8
svg2
 62
     1
420
 16711680
370
    20
100
AcDbVertex
100
AcDb2dVertex
 10
1421.819082775259
 20
734.5675755333505
 30
0.0
  0
VERTEX
  5
234
330
21B
100
AcDbEntity
  8
svg2
 62
     1
420
 16711680
370
    20
100
AcDbVertex
100
AcDb2dVertex
 10
1430.324058097951
 20
734.5675755333505
 30
0.0
  0
VERTEX
  5
235
330
21B
100
AcDbEntity
  8
svg2
 62
     1
420
 16711680
370
    20
100
AcDbVertex
100
AcDb2dVertex
 10
1430.324058097951
 20
777.0875212749961
 30
0.0
  0
VERTEX
  5
236
330
21B
100
AcDbEntity
  8
svg2
 62
     1
420
 16711680
370
    20
100
AcDbVertex
100
AcDb2dVertex
 10
1421.819082775259
 20
777.0875212749961
 30
0.0
  0
VERTEX
  5
237
330
21B
100
AcDbEntity
  8
svg2
 62
     1
420
 16711680
370
    20
100
AcDbVertex
100
AcDb2dVertex
 10
1421.819082775259
 20
819.6060829122725
 30
0.0
  0
VERTEX
  5
238
330
21B
100
AcDbEntity
  8
svg2
 62
     1
420
 16711680
370
    20
100
AcDbVertex
100
AcDb2dVertex
 10
1430.324058097951
 20
819.6060829122725
 30
0.0
  0
VERTEX
  5
239
330
21B
100
AcDbEntity
  8
svg2
 62
     1
420
 16711680
370
    20
100
AcDbVertex
100
AcDb2dVertex
 10
1430.324058097951
 20
862.1260286539182
 30
0.0
  0
VERTEX
  5
23A
330
21B
100
AcDbEntity
  8
svg2
 62
     1
420
 16711680
370
    20
100
AcDbVertex
100
AcDb2dVertex
 10
1421.819082775259
 20
862.1260286539182
 30
0.0
  0
VERTEX
  5
23B
330
21B
100
AcDbEntity
  8
svg2
 62
     1
420
 16711680
370
    20
100
AcDbVertex
100
AcDb2dVertex
 10
1421.819082775259
 20
904.6459743955638
 30
0.0
  0
VERTEX
  5
23C
330
21B
100
AcDbEntity
  8
svg2
 62
     1
420
 16711680
370
    20
100
AcDbVertex
100
AcDb2dVertex
 10
1430.324058097951
 20
904.6459743955638
 30
0.0
  0
VERTEX
  5
23D
330
21B
100
AcDbEntity
  8
svg2
 62
     1
420
 16711680
370
    20
100
AcDbVertex
100
AcDb2dVertex
 10
1430.324058097951
 20
947.1659201372095
 30
0.0
  0
VERTEX
  5
23E
330
21B
100
AcDbEntity
  8
svg2
 62
     1
420
 16711680
370
    20
100
AcDbVertex
100
AcDb2dVertex
 10
1421.819082775259
 20
947.1659201372095
 30
0.0
  0
VERTEX
  5
23F
330
21B
100
AcDbEntity
  8
svg2
 62
     1
420
 16711680
370
    20
100
AcDbVertex
100
AcDb2dVertex
 10
1421.819082775259
 20
989.6843952679628
 30
0.0
  0
VERTEX
  5
240
330
21B
100
AcDbEntity
  8
svg2
 62
     1
420
 16711680
370
    20
100
AcDbVertex
100
AcDb2dVertex
 10
1430.324058097951
 20
989.6843952679628
 30
0.0
  0
VERTEX
  5
241
330
21B
100
AcDbEntity
  8
svg2
 62
     1
420
 16711680
370
    20
100
AcDbVertex
100
AcDb2dVertex
 10
1430.324058097951
 20
1032.204600529178
 30
0.0
  0
VERTEX
  5
242
330
21B
100
AcDbEntity
  8
svg2
 62
     1
420
 16711680
370
    20
100
AcDbVertex
100
AcDb2dVertex
 10
1421.819082775259
 20
1032.204600529178
 30
0.0
  0
VERTEX
  5
243
330
21B
100
AcDbEntity
  8
svg2
 62
     1
420
 16711680
370
    20
100
AcDbVertex
100
AcDb2dVertex
 10
1421.819082775259
 20
1074.724632777346
 30
0.0
  0
VERTEX
  5
244
330
21B
100
AcDbEntity
  8
svg2
 62
     1
420
 16711680
370
    20
100
AcDbVertex
100
AcDb2dVertex
 10
1430.324058097951
 20
1074.724632777346
 30
0.0
  0
VERTEX
  5
245
330
21B
100
AcDbEntity
  8
svg2
 62
     1
420
 16711680
370
    20
100
AcDbVertex
100
AcDb2dVertex
 10
1430.324058097951
 20
1117.244665025515
 30
0.0
  0
SEQEND
  5
246
330
21B
100
AcDbEntity
  8
svg2
 62
     1
420
 16711680
370
    20
  0
INSERT
  5
248
330
67
100
AcDbEntity
  8
svg2
100
AcDbBlockReference
  2
block 19
 10
0.0
 20
0.0
 30
0.0
  0
POLYLINE
  5
2A7
330
67
100
AcDbEntity
  8
svg2
 62
     1
420
 16711680
370
    20
100
AcDb2dPolyline
 66
     1
 10
0.0
 20
0.0
 30
0.0
  0
VERTEX
  5
2A8
330
2A7
100
AcDbEntity
  8
svg2
 62
     1
420
 16711680
370
    20
100
AcDbVertex
100
AcDb2dVertex
 10
1186.543139653677
 20
238.5037910504179
 30
0.0
  0
VERTEX
  5
2A9
330
2A7
100
AcDbEntity
  8
svg2
 62
     1
420
 16711680
370
    20
100
AcDbVertex
100
AcDb2dVertex
 10
1195.047422924185
 20
238.5040505699872
 30
0.0
  0
SEQEND
  5
2AA
330
2A7
100
AcDbEntity
  8
svg2
 62
     1
420
 16711680
370
    20
  0
POLYLINE
  5
2AB
330
67
100
AcDbEntity
  8
svg2
 62
     1
420
 16711680
370
    20
100
AcDb2dPolyline
 66
     1
 10
0.0
 20
0.0
 30
0.0
  0
VERTEX
  5
2AC
330
2AB
100
AcDbEntity
  8
svg2
 62
     1
420
 16711680
370
    20
100
AcDbVertex
100
AcDb2dVertex
 10
1421.819601814397
 20
238.5037910504179
 30
0.0
  0
VERTEX
  5
2AD
330
2AB
100
AcDbEntity
  8
svg2
 62
     1
420
 16711680
370
    20
100
AcDbVertex
100
AcDb2dVertex
 10
1430.323885084905
 20
238.5040505699872
 30
0.0
  0
SEQEND
  5
2AE
330
2AB
100
AcDbEntity
  8
svg2
 62
     1
420
 16711680
370
    20
  0
SPLINE
  5
2AF
330
67
100
AcDbEntity
  8
svg2
 62
     1
420
 16711680
370
    20
100
AcDbSpline
210
0.0
220
0.0
230
1.0
 70
     8
 71
     3
 72
    17
 73
    13
 74
     0
 42
0.0000000001
 43
0.0000000001
 12
1.0
 22
0.0
 32
0.0
 13
1.0
 23
0.0
 33
0.0
 40
0.0
 40
0.0
 40
0.0
 40
0.0
 40
1.0
 40
1.0
 40
1.0
 40
2.0
 40
2.0
 40
2.0
 40
3.0
 40
3.0
 40
3.0
 40
4.0
 40
4.0
 40
4.0
 40
4.0
 10
1430.324058097951
 20
238.5040505699872
 30
0.0
 10
1430.324058097951
 20
238.5040505699872
 30
0.0
 10
1440.017806060747
 20
238.5040505699872
 30
0.0
 10
1440.017806060747
 20
238.5040505699872
 30
0.0
 10
1458.915329039639
 20
238.5040505699872
 30
0.0
 10
1480.566354648025
 20
249.5049986029771
 30
0.0
 10
1543.709888023488
 20
249.5049986029771
 30
0.0
 10
1606.853594411998
 20
249.5049986029771
 30
0.0
 10
1628.506004124753
 20
238.5040505699872
 30
0.0
 10
1647.403527103645
 20
238.5040505699872
 30
0.0
 10
1647.403527103645
 20
238.5040505699872
 30
0.0
 10
1657.095717949025
 20
238.5040505699872
 30
0.0
 10
1657.095717949025
 20
238.5040505699872
 30
0.0
  0
POLYLINE
  5
2B0
330
67
100
AcDbEntity
  8
svg2
 62
     1
420
 16711680
370
    20
100
AcDb2dPolyline
 66
     1
 10
0.0
 20
0.0
 30
0.0
  0
VERTEX
  5
2B1
330
2B0
100
AcDbEntity
  8
svg2
 62
     1
420
 16711680
370
    20
100
AcDbVertex
100
AcDb2dVertex
 10
1657.095025896841
 20
238.5043100895564
 30
0.0
  0
VERTEX
  5
2B2
330
2B0
100
AcDbEntity
  8
svg2
 62
     1
420
 16711680
370
    20
100
AcDbVertex
100
AcDb2dVertex
 10
1657.095025896841
 20
266.8505080513714
 30
0.0
  0
VERTEX
  5
2B3
330
2B0
100
AcDbEntity
  8
svg2
 62
     1
420
 16711680
370
    20
100
AcDbVertex
100
AcDb2dVertex
 10
1665.600001219533
 20
266.8505080513714
 30
0.0
  0
VERTEX
  5
2B4
330
2B0
100
AcDbEntity
  8
svg2
 62
     1
420
 16711680
370
    20
100
AcDbVertex
100
AcDb2dVertex
 10
1665.600001219533
 20
309.3705402995402
 30
0.0
  0
VERTEX
  5
2B5
330
2B0
100
AcDbEntity
  8
svg2
 62
     1
420
 16711680
370
    20
100
AcDbVertex
100
AcDb2dVertex
 10
1657.095025896841
 20
309.3705402995402
 30
0.0
  0
VERTEX
  5
2B6
330
2B0
100
AcDbEntity
  8
svg2
 62
     1
420
 16711680
370
    20
100
AcDbVertex
100
AcDb2dVertex
 10
1657.095025896841
 20
351.8905725477089
 30
0.0
  0
VERTEX
  5
2B7
330
2B0
100
AcDbEntity
  8
svg2
 62
     1
420
 16711680
370
    20
100
AcDbVertex
100
AcDb2dVertex
 10
1665.600001219533
 20
351.8905725477089
 30
0.0
  0
VERTEX
  5
2B8
330
2B0
100
AcDbEntity
  8
svg2
 62
     1
420
 16711680
370
    20
100
AcDbVertex
100
AcDb2dVertex
 10
1665.600001219533
 20
394.4106047958776
 30
0.0
  0
VERTEX
  5
2B9
330
2B0
100
AcDbEntity
  8
svg2
 62
     1
420
 16711680
370
    20
100
AcDbVertex
100
AcDb2dVertex
 10
1657.095025896841
 20
394.4106047958776
 30
0.0
  0
VERTEX
  5
2BA
330
2B0
100
AcDbEntity
  8
svg2
 62
     1
420
 16711680
370
    20
100
AcDbVertex
100
AcDb2dVertex
 10
1657.095025896841
 20
436.9292529396771
 30
0.0
  0
VERTEX
  5
2BB
330
2B0
100
AcDbEntity
  8
svg2
 62
     1
420
 16711680
370
    20
100
AcDbVertex
100
AcDb2dVertex
 10
1665.600001219533
 20
436.9292529396771
 30
0.0
  0
VERTEX
  5
2BC
330
2B0
100
AcDbEntity
  8
svg2
 62
     1
420
 16711680
370
    20
100
AcDbVertex
100
AcDb2dVertex
 10
1665.600001219533
 20
479.4491986813227
 30
0.0
  0
VERTEX
  5
2BD
330
2B0
100
AcDbEntity
  8
svg2
 62
     1
420
 16711680
370
    20
100
AcDbVertex
100
AcDb2dVertex
 10
1657.095025896841
 20
479.4491986813227
 30
0.0
  0
VERTEX
  5
2BE
330
2B0
100
AcDbEntity
  8
svg2
 62
     1
420
 16711680
370
    20
100
AcDbVertex
100
AcDb2dVertex
 10
1657.095025896841
 20
521.9691444229684
 30
0.0
  0
VERTEX
  5
2BF
330
2B0
100
AcDbEntity
  8
svg2
 62
     1
420
 16711680
370
    20
100
AcDbVertex
100
AcDb2dVertex
 10
1665.600001219533
 20
521.9691444229684
 30
0.0
  0
VERTEX
  5
2C0
330
2B0
100
AcDbEntity
  8
svg2
 62
     1
420
 16711680
370
    20
100
AcDbVertex
100
AcDb2dVertex
 10
1665.600001219533
 20
564.489090164614
 30
0.0
  0
VERTEX
  5
2C1
330
2B0
100
AcDbEntity
  8
svg2
 62
     1
420
 16711680
370
    20
100
AcDbVertex
100
AcDb2dVertex
 10
1657.095025896841
 20
564.489090164614
 30
0.0
  0
VERTEX
  5
2C2
330
2B0
100
AcDbEntity
  8
svg2
 62
     1
420
 16711680
370
    20
100
AcDbVertex
100
AcDb2dVertex
 10
1657.095025896841
 20
607.0090359062597
 30
0.0
  0
VERTEX
  5
2C3
330
2B0
100
AcDbEntity
  8
svg2
 62
     1
420
 16711680
370
    20
100
AcDbVertex
100
AcDb2dVertex
 10
1665.600001219533
 20
607.0090359062597
 30
0.0
  0
VERTEX
  5
2C4
330
2B0
100
AcDbEntity
  8
svg2
 62
     1
420
 16711680
370
    20
100
AcDbVertex
100
AcDb2dVertex
 10
1665.600001219533
 20
649.5275975435361
 30
0.0
  0
VERTEX
  5
2C5
330
2B0
100
AcDbEntity
  8
svg2
 62
     1
420
 16711680
370
    20
100
AcDbVertex
100
AcDb2dVertex
 10
1657.095025896841
 20
649.5275975435361
 30
0.0
  0
VERTEX
  5
2C6
330
2B0
100
AcDbEntity
  8
svg2
 62
     1
420
 16711680
370
    20
100
AcDbVertex
100
AcDb2dVertex
 10
1657.095025896841
 20
692.047889311274
 30
0.0
  0
VERTEX
  5
2C7
330
2B0
100
AcDbEntity
  8
svg2
 62
     1
420
 16711680
370
    20
100
AcDbVertex
100
AcDb2dVertex
 10
1665.600001219533
 20
692.047889311274
 30
0.0
  0
VERTEX
  5
2C8
330
2B0
100
AcDbEntity
  8
svg2
 62
     1
420
 16711680
370
    20
100
AcDbVertex
100
AcDb2dVertex
 10
1665.600001219533
 20
734.5678350529197
 30
0.0
  0
VERTEX
  5
2C9
330
2B0
100
AcDbEntity
  8
svg2
 62
     1
420
 16711680
370
    20
100
AcDbVertex
100
AcDb2dVertex
 10
1657.095025896841
 20
734.5678350529197
 30
0.0
  0
VERTEX
  5
2CA
330
2B0
100
AcDbEntity
  8
svg2
 62
     1
420
 16711680
370
    20
100
AcDbVertex
100
AcDb2dVertex
 10
1657.095025896841
 20
777.0877807945653
 30
0.0
  0
VERTEX
  5
2CB
330
2B0
100
AcDbEntity
  8
svg2
 62
     1
420
 16711680
370
    20
100
AcDbVertex
100
AcDb2dVertex
 10
1665.600001219533
 20
777.0877807945653
 30
0.0
  0
VERTEX
  5
2CC
330
2B0
100
AcDbEntity
  8
svg2
 62
     1
420
 16711680
370
    20
100
AcDbVertex
100
AcDb2dVertex
 10
1665.600001219533
 20
819.6063424318418
 30
0.0
  0
VERTEX
  5
2CD
330
2B0
100
AcDbEntity
  8
svg2
 62
     1
420
 16711680
370
    20
100
AcDbVertex
100
AcDb2dVertex
 10
1657.095025896841
 20
819.6063424318418
 30
0.0
  0
VERTEX
  5
2CE
330
2B0
100
AcDbEntity
  8
svg2
 62
     1
420
 16711680
370
    20
100
AcDbVertex
100
AcDb2dVertex
 10
1657.095025896841
 20
862.1262881734874
 30
0.0
  0
VERTEX
  5
2CF
330
2B0
100
AcDbEntity
  8
svg2
 62
     1
420
 16711680
370
    20
100
AcDbVertex
100
AcDb2dVertex
 10
1665.600001219533
 20
862.1262881734874
 30
0.0
  0
VERTEX
  5
2D0
330
2B0
100
AcDbEntity
  8
svg2
 62
     1
420
 16711680
370
    20
100
AcDbVertex
100
AcDb2dVertex
 10
1665.600001219533
 20
904.646233915133
 30
0.0
  0
VERTEX
  5
2D1
330
2B0
100
AcDbEntity
  8
svg2
 62
     1
420
 16711680
370
    20
100
AcDbVertex
100
AcDb2dVertex
 10
1657.095025896841
 20
904.646233915133
 30
0.0
  0
VERTEX
  5
2D2
330
2B0
100
AcDbEntity
  8
svg2
 62
     1
420
 16711680
370
    20
100
AcDbVertex
100
AcDb2dVertex
 10
1657.095025896841
 20
947.1662661633018
 30
0.0
  0
VERTEX
  5
2D3
330
2B0
100
AcDbEntity
  8
svg2
 62
     1
420
 16711680
370
    20
100
AcDbVertex
100
AcDb2dVertex
 10
1665.600001219533
 20
947.1662661633018
 30
0.0
  0
VERTEX
  5
2D4
330
2B0
100
AcDbEntity
  8
svg2
 62
     1
420
 16711680
370
    20
100
AcDbVertex
100
AcDb2dVertex
 10
1665.600001219533
 20
989.6847412940551
 30
0.0
  0
VERTEX
  5
2D5
330
2B0
100
AcDbEntity
  8
svg2
 62
     1
420
 16711680
370
    20
100
AcDbVertex
100
AcDb2dVertex
 10
1657.095025896841
 20
989.6847412940551
 30
0.0
  0
VERTEX
  5
2D6
330
2B0
100
AcDbEntity
  8
svg2
 62
     1
420
 16711680
370
    20
100
AcDbVertex
100
AcDb2dVertex
 10
1657.095025896841
 20
1032.20494655527
 30
0.0
  0
VERTEX
  5
2D7
330
2B0
100
AcDbEntity
  8
svg2
 62
     1
420
 16711680
370
    20
100
AcDbVertex
100
AcDb2dVertex
 10
1665.600001219533
 20
1032.20494655527
 30
0.0
  0
VERTEX
  5
2D8
330
2B0
100
AcDbEntity
  8
svg2
 62
     1
420
 16711680
370
    20
100
AcDbVertex
100
AcDb2dVertex
 10
1665.600001219533
 20
1074.724978803439
 30
0.0
  0
VERTEX
  5
2D9
330
2B0
100
AcDbEntity
  8
svg2
 62
     1
420
 16711680
370
    20
100
AcDbVertex
100
AcDb2dVertex
 10
1657.095025896841
 20
1074.724978803439
 30
0.0
  0
VERTEX
  5
2DA
330
2B0
100
AcDbEntity
  8
svg2
 62
     1
420
 16711680
370
    20
100
AcDbVertex
100
AcDb2dVertex
 10
1657.095025896841
 20
1117.245011051607
 30
0.0
  0
SEQEND
  5
2DB
330
2B0
100
AcDbEntity
  8
svg2
 62
     1
420
 16711680
370
    20
  0
POLYLINE
  5
2DC
330
67
100
AcDbEntity
  8
svg2
 62
     1
420
 16711680
370
    20
100
AcDb2dPolyline
 66
     1
 10
0.0
 20
0.0
 30
0.0
  0
VERTEX
  5
2DD
330
2DC
100
AcDbEntity
  8
svg2
 62
     1
420
 16711680
370
    20
100
AcDbVertex
100
AcDb2dVertex
 10
1522.449871899404
 20
258.3469168330485
 30
0.0
  0
VERTEX
  5
2DE
330
2DC
100
AcDbEntity
  8
svg2
 62
     1
420
 16711680
370
    20
100
AcDbVertex
100
AcDb2dVertex
 10
1522.449871899404
 20
266.5673722013453
 30
0.0
  0
VERTEX
  5
2DF
330
2DC
100
AcDbEntity
  8
svg2
 62
     1
420
 16711680
370
    20
100
AcDbVertex
100
AcDb2dVertex
 10
1479.930185677327
 20
266.5673722013453
 30
0.0
  0
VERTEX
  5
2E0
330
2DC
100
AcDbEntity
  8
svg2
 62
     1
420
 16711680
370
    20
100
AcDbVertex
100
AcDb2dVertex
 10
1479.930185677327
 20
258.3469168330485
 30
0.0
  0
VERTEX
  5
2E1
330
2DC
100
AcDbEntity
  8
svg2
 62
     1
420
 16711680
370
    20
100
AcDbVertex
100
AcDb2dVertex
 10
1522.449871899404
 20
258.3469168330485
 30
0.0
  0
SEQEND
  5
2E2
330
2DC
100
AcDbEntity
  8
svg2
 62
     1
420
 16711680
370
    20
  0
POLYLINE
  5
2E3
330
67
100
AcDbEntity
  8
svg2
 62
     1
420
 16711680
370
    20
100
AcDb2dPolyline
 66
     1
 10
0.0
 20
0.0
 30
0.0
  0
VERTEX
  5
2E4
330
2E3
100
AcDbEntity
  8
svg2
 62
     1
420
 16711680
370
    20
100
AcDbVertex
100
AcDb2dVertex
 10
1607.489244343556
 20
258.3469168330485
 30
0.0
  0
VERTEX
  5
2E5
330
2E3
100
AcDbEntity
  8
svg2
 62
     1
420
 16711680
370
    20
100
AcDbVertex
100
AcDb2dVertex
 10
1607.489244343556
 20
266.5673722013453
 30
0.0
  0
VERTEX
  5
2E6
330
2E3
100
AcDbEntity
  8
svg2
 62
     1
420
 16711680
370
    20
100
AcDbVertex
100
AcDb2dVertex
 10
1564.96955812148
 20
266.5673722013453
 30
0.0
  0
VERTEX
  5
2E7
330
2E3
100
AcDbEntity
  8
svg2
 62
     1
420
 16711680
370
    20
100
AcDbVertex
100
AcDb2dVertex
 10
1564.96955812148
 20
258.3469168330485
 30
0.0
  0
VERTEX
  5
2E8
330
2E3
100
AcDbEntity
  8
svg2
 62
     1
420
 16711680
370
    20
100
AcDbVertex
100
AcDb2dVertex
 10
1607.489244343556
 20
258.3469168330485
 30
0.0
  0
SEQEND
  5
2E9
330
2E3
100
AcDbEntity
  8
svg2
 62
     1
420
 16711680
370
    20
  0
POLYLINE
  5
2EA
330
67
100
AcDbEntity
  8
svg2
 62
     1
420
 16711680
370
    20
100
AcDb2dPolyline
 66
     1
 10
0.0
 20
0.0
 30
0.0
  0
VERTEX
  5
2EB
330
2EA
100
AcDbEntity
  8
svg2
 62
     1
420
 16711680
370
    20
100
AcDbVertex
100
AcDb2dVertex
 10
1430.324058097951
 20
1309.691920624595
 30
0.0
  0
VERTEX
  5
2EC
330
2EA
100
AcDbEntity
  8
svg2
 62
     1
420
 16711680
370
    20
100
AcDbVertex
100
AcDb2dVertex
 10
1430.324058097951
 20
1117.244665025515
 30
0.0
  0
SEQEND
  5
2ED
330
2EA
100
AcDbEntity
  8
svg2
 62
     1
420
 16711680
370
    20
  0
POLYLINE
  5
2EE
330
67
100
AcDbEntity
  8
svg2
 62
     1
420
 16711680
370
    20
100
AcDb2dPolyline
 66
     1
 10
0.0
 20
0.0
 30
0.0
  0
VERTEX
  5
2EF
330
2EE
100
AcDbEntity
  8
svg2
 62
     1
420
 16711680
370
    20
100
AcDbVertex
100
AcDb2dVertex
 10
1657.095544935979
 20
1309.691920624595
 30
0.0
  0
VERTEX
  5
2F0
330
2EE
100
AcDbEntity
  8
svg2
 62
     1
420
 16711680
370
    20
100
AcDbVertex
100
AcDb2dVertex
 10
1657.095544935979
 20
1117.244665025515
 30
0.0
  0
SEQEND
  5
2F1
330
2EE
100
AcDbEntity
  8
svg2
 62
     1
420
 16711680
370
    20
  0
INSERT
  5
2F3
330
67
100
AcDbEntity
  8
svg2
100
AcDbBlockReference
  2
block 20
 10
0.0
 20
0.0
 30
0.0
  0
INSERT
  5
2FD
330
67
100
AcDbEntity
  8
svg2
100
AcDbBlockReference
  2
block 21
 10
0.0
 20
0.0
 30
0.0
  0
INSERT
  5
307
330
67
100
AcDbEntity
  8
svg2
100
AcDbBlockReference
  2
block 22
 10
0.0
 20
0.0
 30
0.0
  0
INSERT
  5
315
330
67
100
AcDbEntity
  8
svg2
100
AcDbBlockReference
  2
block 24
 10
0.0
 20
0.0
 30
0.0
  0
SPLINE
  5
414
330
67
100
AcDbEntity
  8
svg2
 62
     1
420
 16711680
370
    20
100
AcDbSpline
210
0.0
220
0.0
230
1.0
 70
     8
 71
     3
 72
    17
 73
    13
 74
     0
 42
0.0000000001
 43
0.0000000001
 12
1.0
 22
0.0
 32
0.0
 13
1.0
 23
0.0
 33
0.0
 40
0.0
 40
0.0
 40
0.0
 40
0.0
 40
1.0
 40
1.0
 40
1.0
 40
2.0
 40
2.0
 40
2.0
 40
3.0
 40
3.0
 40
3.0
 40
4.0
 40
4.0
 40
4.0
 40
4.0
 10
1665.600001219533
 20
238.5043100895564
 30
0.0
 10
1665.600001219533
 20
238.5043100895564
 30
0.0
 10
1675.293749182329
 20
238.5043100895564
 30
0.0
 10
1675.293749182329
 20
238.5043100895564
 30
0.0
 10
1694.191272161221
 20
238.5043100895564
 30
0.0
 10
1715.842297769606
 20
249.5052581225464
 30
0.0
 10
1778.98583114507
 20
249.5052581225464
 30
0.0
 10
1842.129537533579
 20
249.5052581225464
 30
0.0
 10
1863.781947246334
 20
238.5043100895564
 30
0.0
 10
1882.679470225226
 20
238.5043100895564
 30
0.0
 10
1882.679470225226
 20
238.5043100895564
 30
0.0
 10
1892.371661070607
 20
238.5043100895564
 30
0.0
 10
1892.371661070607
 20
238.5043100895564
 30
0.0
  0
POLYLINE
  5
415
330
67
100
AcDbEntity
  8
svg2
 62
     1
420
 16711680
370
    20
100
AcDb2dPolyline
 66
     1
 10
0.0
 20
0.0
 30
0.0
  0
VERTEX
  5
416
330
415
100
AcDbEntity
  8
svg2
 62
     1
420
 16711680
370
    20
100
AcDbVertex
100
AcDb2dVertex
 10
1900.876636393299
 20
238.5043100895564
 30
0.0
  0
VERTEX
  5
417
330
415
100
AcDbEntity
  8
svg2
 62
     1
420
 16711680
370
    20
100
AcDbVertex
100
AcDb2dVertex
 10
1900.876636393299
 20
266.8505080513714
 30
0.0
  0
VERTEX
  5
418
330
415
100
AcDbEntity
  8
svg2
 62
     1
420
 16711680
370
    20
100
AcDbVertex
100
AcDb2dVertex
 10
1892.371661070607
 20
266.8505080513714
 30
0.0
  0
VERTEX
  5
419
330
415
100
AcDbEntity
  8
svg2
 62
     1
420
 16711680
370
    20
100
AcDbVertex
100
AcDb2dVertex
 10
1892.371661070607
 20
309.3705402995402
 30
0.0
  0
VERTEX
  5
41A
330
415
100
AcDbEntity
  8
svg2
 62
     1
420
 16711680
370
    20
100
AcDbVertex
100
AcDb2dVertex
 10
1900.876636393299
 20
309.3705402995402
 30
0.0
  0
VERTEX
  5
41B
330
415
100
AcDbEntity
  8
svg2
 62
     1
420
 16711680
370
    20
100
AcDbVertex
100
AcDb2dVertex
 10
1900.876636393299
 20
351.8905725477089
 30
0.0
  0
VERTEX
  5
41C
330
415
100
AcDbEntity
  8
svg2
 62
     1
420
 16711680
370
    20
100
AcDbVertex
100
AcDb2dVertex
 10
1892.371661070607
 20
351.8905725477089
 30
0.0
  0
VERTEX
  5
41D
330
415
100
AcDbEntity
  8
svg2
 62
     1
420
 16711680
370
    20
100
AcDbVertex
100
AcDb2dVertex
 10
1892.371661070607
 20
394.4106047958776
 30
0.0
  0
VERTEX
  5
41E
330
415
100
AcDbEntity
  8
svg2
 62
     1
420
 16711680
370
    20
100
AcDbVertex
100
AcDb2dVertex
 10
1900.876636393299
 20
394.4106047958776
 30
0.0
  0
VERTEX
  5
41F
330
415
100
AcDbEntity
  8
svg2
 62
     1
420
 16711680
370
    20
100
AcDbVertex
100
AcDb2dVertex
 10
1900.876636393299
 20
436.9292529396771
 30
0.0
  0
VERTEX
  5
420
330
415
100
AcDbEntity
  8
svg2
 62
     1
420
 16711680
370
    20
100
AcDbVertex
100
AcDb2dVertex
 10
1892.371661070607
 20
436.9292529396771
 30
0.0
  0
VERTEX
  5
421
330
415
100
AcDbEntity
  8
svg2
 62
     1
420
 16711680
370
    20
100
AcDbVertex
100
AcDb2dVertex
 10
1892.371661070607
 20
479.4491986813227
 30
0.0
  0
VERTEX
  5
422
330
415
100
AcDbEntity
  8
svg2
 62
     1
420
 16711680
370
    20
100
AcDbVertex
100
AcDb2dVertex
 10
1900.876636393299
 20
479.4491986813227
 30
0.0
  0
VERTEX
  5
423
330
415
100
AcDbEntity
  8
svg2
 62
     1
420
 16711680
370
    20
100
AcDbVertex
100
AcDb2dVertex
 10
1900.876636393299
 20
521.9691444229684
 30
0.0
  0
VERTEX
  5
424
330
415
100
AcDbEntity
  8
svg2
 62
     1
420
 16711680
370
    20
100
AcDbVertex
100
AcDb2dVertex
 10
1892.371661070607
 20
521.9691444229684
 30
0.0
  0
VERTEX
  5
425
330
415
100
AcDbEntity
  8
svg2
 62
     1
420
 16711680
370
    20
100
AcDbVertex
100
AcDb2dVertex
 10
1892.371661070607
 20
564.489090164614
 30
0.0
  0
VERTEX
  5
426
330
415
100
AcDbEntity
  8
svg2
 62
     1
420
 16711680
370
    20
100
AcDbVertex
100
AcDb2dVertex
 10
1900.876636393299
 20
564.489090164614
 30
0.0
  0
VERTEX
  5
427
330
415
100
AcDbEntity
  8
svg2
 62
     1
420
 16711680
370
    20
100
AcDbVertex
100
AcDb2dVertex
 10
1900.876636393299
 20
607.0090359062597
 30
0.0
  0
VERTEX
  5
428
330
415
100
AcDbEntity
  8
svg2
 62
     1
420
 16711680
370
    20
100
AcDbVertex
100
AcDb2dVertex
 10
1892.371661070607
 20
607.0090359062597
 30
0.0
  0
VERTEX
  5
429
330
415
100
AcDbEntity
  8
svg2
 62
     1
420
 16711680
370
    20
100
AcDbVertex
100
AcDb2dVertex
 10
1892.371661070607
 20
649.5275975435361
 30
0.0
  0
VERTEX
  5
42A
330
415
100
AcDbEntity
  8
svg2
 62
     1
420
 16711680
370
    20
100
AcDbVertex
100
AcDb2dVertex
 10
1900.876636393299
 20
649.5275975435361
 30
0.0
  0
VERTEX
  5
42B
330
415
100
AcDbEntity
  8
svg2
 62
     1
420
 16711680
370
    20
100
AcDbVertex
100
AcDb2dVertex
 10
1900.876636393299
 20
692.047889311274
 30
0.0
  0
VERTEX
  5
42C
330
415
100
AcDbEntity
  8
svg2
 62
     1
420
 16711680
370
    20
100
AcDbVertex
100
AcDb2dVertex
 10
1892.371661070607
 20
692.047889311274
 30
0.0
  0
VERTEX
  5
42D
330
415
100
AcDbEntity
  8
svg2
 62
     1
420
 16711680
370
    20
100
AcDbVertex
100
AcDb2dVertex
 10
1892.371661070607
 20
734.5678350529197
 30
0.0
  0
VERTEX
  5
42E
330
415
100
AcDbEntity
  8
svg2
 62
     1
420
 16711680
370
    20
100
AcDbVertex
100
AcDb2dVertex
 10
1900.876636393299
 20
734.5678350529197
 30
0.0
  0
VERTEX
  5
42F
330
415
100
AcDbEntity
  8
svg2
 62
     1
420
 16711680
370
    20
100
AcDbVertex
100
AcDb2dVertex
 10
1900.876636393299
 20
777.0877807945653
 30
0.0
  0
VERTEX
  5
430
330
415
100
AcDbEntity
  8
svg2
 62
     1
420
 16711680
370
    20
100
AcDbVertex
100
AcDb2dVertex
 10
1892.371661070607
 20
777.0877807945653
 30
0.0
  0
VERTEX
  5
431
330
415
100
AcDbEntity
  8
svg2
 62
     1
420
 16711680
370
    20
100
AcDbVertex
100
AcDb2dVertex
 10
1892.371661070607
 20
819.6063424318418
 30
0.0
  0
VERTEX
  5
432
330
415
100
AcDbEntity
  8
svg2
 62
     1
420
 16711680
370
    20
100
AcDbVertex
100
AcDb2dVertex
 10
1900.876636393299
 20
819.6063424318418
 30
0.0
  0
VERTEX
  5
433
330
415
100
AcDbEntity
  8
svg2
 62
     1
420
 16711680
370
    20
100
AcDbVertex
100
AcDb2dVertex
 10
1900.876636393299
 20
862.1262881734874
 30
0.0
  0
VERTEX
  5
434
330
415
100
AcDbEntity
  8
svg2
 62
     1
420
 16711680
370
    20
100
AcDbVertex
100
AcDb2dVertex
 10
1892.371661070607
 20
862.1262881734874
 30
0.0
  0
VERTEX
  5
435
330
415
100
AcDbEntity
  8
svg2
 62
     1
420
 16711680
370
    20
100
AcDbVertex
100
AcDb2dVertex
 10
1892.371661070607
 20
904.646233915133
 30
0.0
  0
VERTEX
  5
436
330
415
100
AcDbEntity
  8
svg2
 62
     1
420
 16711680
370
    20
100
AcDbVertex
100
AcDb2dVertex
 10
1900.876636393299
 20
904.646233915133
 30
0.0
  0
VERTEX
  5
437
330
415
100
AcDbEntity
  8
svg2
 62
     1
420
 16711680
370
    20
100
AcDbVertex
100
AcDb2dVertex
 10
1900.876636393299
 20
947.1662661633018
 30
0.0
  0
VERTEX
  5
438
330
415
100
AcDbEntity
  8
svg2
 62
     1
420
 16711680
370
    20
100
AcDbVertex
100
AcDb2dVertex
 10
1892.371661070607
 20
947.1662661633018
 30
0.0
  0
VERTEX
  5
439
330
415
100
AcDbEntity
  8
svg2
 62
     1
420
 16711680
370
    20
100
AcDbVertex
100
AcDb2dVertex
 10
1892.371661070607
 20
989.6847412940551
 30
0.0
  0
VERTEX
  5
43A
330
415
100
AcDbEntity
  8
svg2
 62
     1
420
 16711680
370
    20
100
AcDbVertex
100
AcDb2dVertex
 10
1900.876636393299
 20
989.6847412940551
 30
0.0
  0
VERTEX
  5
43B
330
415
100
AcDbEntity
  8
svg2
 62
     1
420
 16711680
370
    20
100
AcDbVertex
100
AcDb2dVertex
 10
1900.876636393299
 20
1032.20494655527
 30
0.0
  0
VERTEX
  5
43C
330
415
100
AcDbEntity
  8
svg2
 62
     1
420
 16711680
370
    20
100
AcDbVertex
100
AcDb2dVertex
 10
1892.371661070607
 20
1032.20494655527
 30
0.0
  0
VERTEX
  5
43D
330
415
100
AcDbEntity
  8
svg2
 62
     1
420
 16711680
370
    20
100
AcDbVertex
100
AcDb2dVertex
 10
1892.371661070607
 20
1074.724978803439
 30
0.0
  0
VERTEX
  5
43E
330
415
100
AcDbEntity
  8
svg2
 62
     1
420
 16711680
370
    20
100
AcDbVertex
100
AcDb2dVertex
 10
1900.876636393299
 20
1074.724978803439
 30
0.0
  0
VERTEX
  5
43F
330
415
100
AcDbEntity
  8
svg2
 62
     1
420
 16711680
370
    20
100
AcDbVertex
100
AcDb2dVertex
 10
1900.876636393299
 20
1117.245011051607
 30
0.0
  0
SEQEND
  5
440
330
415
100
AcDbEntity
  8
svg2
 62
     1
420
 16711680
370
    20
  0
INSERT
  5
442
330
67
100
AcDbEntity
  8
svg2
100
AcDbBlockReference
  2
block 25
 10
0.0
 20
0.0
 30
0.0
  0
INSERT
  5
454
330
67
100
AcDbEntity
  8
svg2
100
AcDbBlockReference
  2
block 26
 10
0.0
 20
0.0
 30
0.0
  0
POLYLINE
  5
457
330
67
100
AcDbEntity
  8
svg2
 62
     1
420
 16711680
370
    20
100
AcDb2dPolyline
 66
     1
 10
0.0
 20
0.0
 30
0.0
  0
VERTEX
  5
458
330
457
100
AcDbEntity
  8
svg2
 62
     1
420
 16711680
370
    20
100
AcDbVertex
100
AcDb2dVertex
 10
1769.772713424481
 20
1368.689715388187
 30
0.0
  0
VERTEX
  5
459
330
457
100
AcDbEntity
  8
svg2
 62
     1
420
 16711680
370
    20
100
AcDbVertex
100
AcDb2dVertex
 10
1788.197910787381
 20
1368.689715388187
 30
0.0
  0
VERTEX
  5
45A
330
457
100
AcDbEntity
  8
svg2
 62
     1
420
 16711680
370
    20
100
AcDbVertex
100
AcDb2dVertex
 10
1788.197910787381
 20
1283.650342944034
 30
0.0
  0
VERTEX
  5
45B
330
457
100
AcDbEntity
  8
svg2
 62
     1
420
 16711680
370
    20
100
AcDbVertex
100
AcDb2dVertex
 10
1769.772713424481
 20
1283.650342944034
 30
0.0
  0
VERTEX
  5
45C
330
457
100
AcDbEntity
  8
svg2
 62
     1
420
 16711680
370
    20
100
AcDbVertex
100
AcDb2dVertex
 10
1769.772713424481
 20
1368.689715388187
 30
0.0
  0
SEQEND
  5
45D
330
457
100
AcDbEntity
  8
svg2
 62
     1
420
 16711680
370
    20
  0
SPLINE
  5
45E
330
67
100
AcDbEntity
  8
svg2
 62
     1
420
 16711680
370
    20
100
AcDbSpline
210
0.0
220
0.0
230
1.0
 70
     8
 71
     3
 72
    17
 73
    13
 74
     0
 42
0.0000000001
 43
0.0000000001
 12
1.0
 22
0.0
 32
0.0
 13
1.0
 23
0.0
 33
0.0
 40
0.0
 40
0.0
 40
0.0
 40
0.0
 40
1.0
 40
1.0
 40
1.0
 40
2.0
 40
2.0
 40
2.0
 40
3.0
 40
3.0
 40
3.0
 40
4.0
 40
4.0
 40
4.0
 40
4.0
 10
1657.095544935979
 20
1117.244838038561
 30
0.0
 10
1657.095544935979
 20
1222.240746317097
 30
0.0
 10
1744.917313188333
 20
1285.090157514103
 30
0.0
 10
1744.917313188333
 20
1368.689888401233
 30
0.0
 10
1744.917313188333
 20
1385.594820127604
 30
0.0
 10
1753.196333472752
 20
1399.298664474089
 30
0.0
 10
1778.985312105931
 20
1399.298664474089
 30
0.0
 10
1804.774290739111
 20
1399.298664474089
 30
0.0
 10
1813.05331102353
 20
1385.594820127604
 30
0.0
 10
1813.05331102353
 20
1368.689888401233
 30
0.0
 10
1813.05331102353
 20
1285.090157514103
 30
0.0
 10
1900.875079275884
 20
1222.240746317097
 30
0.0
 10
1900.875079275884
 20
1117.244838038561
 30
0.0
  0
INSERT
  5
460
330
67
100
AcDbEntity
  8
svg2
100
AcDbBlockReference
  2
block 27
 10
0.0
 20
0.0
 30
0.0
  0
POLYLINE
  5
4BF
330
67
100
AcDbEntity
  8
svg2
 62
     1
420
 16711680
370
    20
100
AcDb2dPolyline
 66
     1
 10
0.0
 20
0.0
 30
0.0
  0
VERTEX
  5
4C0
330
4BF
100
AcDbEntity
  8
svg2
 62
     1
420
 16711680
370
    20
100
AcDbVertex
100
AcDb2dVertex
 10
1657.095717949025
 20
238.5040505699872
 30
0.0
  0
VERTEX
  5
4C1
330
4BF
100
AcDbEntity
  8
svg2
 62
     1
420
 16711680
370
    20
100
AcDbVertex
100
AcDb2dVertex
 10
1665.600001219533
 20
238.5043100895564
 30
0.0
  0
SEQEND
  5
4C2
330
4BF
100
AcDbEntity
  8
svg2
 62
     1
420
 16711680
370
    20
  0
POLYLINE
  5
4C3
330
67
100
AcDbEntity
  8
svg2
 62
     1
420
 16711680
370
    20
100
AcDb2dPolyline
 66
     1
 10
0.0
 20
0.0
 30
0.0
  0
VERTEX
  5
4C4
330
4C3
100
AcDbEntity
  8
svg2
 62
     1
420
 16711680
370
    20
100
AcDbVertex
100
AcDb2dVertex
 10
1892.372180109745
 20
238.5040505699872
 30
0.0
  0
VERTEX
  5
4C5
330
4C3
100
AcDbEntity
  8
svg2
 62
     1
420
 16711680
370
    20
100
AcDbVertex
100
AcDb2dVertex
 10
1900.876463380253
 20
238.5043100895564
 30
0.0
  0
SEQEND
  5
4C6
330
4C3
100
AcDbEntity
  8
svg2
 62
     1
420
 16711680
370
    20
  0
ENDBLK
  5
6A
330
67
100
AcDbEntity
  8
0
100
AcDbBlockEnd
  0
BLOCK
  5
6D
330
6B
100
AcDbEntity
  8
0
100
AcDbBlockBegin
  2
block 12
 70
     0
 10
0.0
 20
0.0
 30
0.0
  3
block 12
  1

  0
POLYLINE
  5
6F
330
6B
100
AcDbEntity
  8
svg2
 62
     1
420
 16711680
370
    20
100
AcDb2dPolyline
 66
     1
 10
0.0
 20
0.0
 30
0.0
  0
VERTEX
  5
70
330
6F
100
AcDbEntity
  8
svg2
 62
     1
420
 16711680
370
    20
100
AcDbVertex
100
AcDb2dVertex
 10
1244.653896529653
 20
266.5668531622068
 30
0.0
  0
VERTEX
  5
71
330
6F
100
AcDbEntity
  8
svg2
 62
     1
420
 16711680
370
    20
100
AcDbVertex
100
AcDb2dVertex
 10
1244.653896529653
 20
258.3468303265254
 30
0.0
  0
VERTEX
  5
72
330
6F
100
AcDbEntity
  8
svg2
 62
     1
420
 16711680
370
    20
100
AcDbVertex
100
AcDb2dVertex
 10
1287.173928777822
 20
258.3468303265254
 30
0.0
  0
VERTEX
  5
73
330
6F
100
AcDbEntity
  8
svg2
 62
     1
420
 16711680
370
    20
100
AcDbVertex
100
AcDb2dVertex
 10
1287.173928777822
 20
266.5668531622068
 30
0.0
  0
VERTEX
  5
74
330
6F
100
AcDbEntity
  8
svg2
 62
     1
420
 16711680
370
    20
100
AcDbVertex
100
AcDb2dVertex
 10
1244.653896529653
 20
266.5668531622068
 30
0.0
  0
SEQEND
  5
75
330
6F
100
AcDbEntity
  8
svg2
 62
     1
420
 16711680
370
    20
  0
POLYLINE
  5
76
330
6B
100
AcDbEntity
  8
svg2
 62
     1
420
 16711680
370
    20
100
AcDb2dPolyline
 66
     1
 10
0.0
 20
0.0
 30
0.0
  0
VERTEX
  5
77
330
76
100
AcDbEntity
  8
svg2
 62
     1
420
 16711680
370
    20
100
AcDbVertex
100
AcDb2dVertex
 10
1329.693961025991
 20
266.5668531622068
 30
0.0
  0
VERTEX
  5
78
330
76
100
AcDbEntity
  8
svg2
 62
     1
420
 16711680
370
    20
100
AcDbVertex
100
AcDb2dVertex
 10
1329.693961025991
 20
258.3468303265254
 30
0.0
  0
VERTEX
  5
79
330
76
100
AcDbEntity
  8
svg2
 62
     1
420
 16711680
370
    20
100
AcDbVertex
100
AcDb2dVertex
 10
1372.212436156744
 20
258.3468303265254
 30
0.0
  0
VERTEX
  5
7A
330
76
100
AcDbEntity
  8
svg2
 62
     1
420
 16711680
370
    20
100
AcDbVertex
100
AcDb2dVertex
 10
1372.212436156744
 20
266.5668531622068
 30
0.0
  0
VERTEX
  5
7B
330
76
100
AcDbEntity
  8
svg2
 62
     1
420
 16711680
370
    20
100
AcDbVertex
100
AcDb2dVertex
 10
1329.693961025991
 20
266.5668531622068
 30
0.0
  0
SEQEND
  5
7C
330
76
100
AcDbEntity
  8
svg2
 62
     1
420
 16711680
370
    20
  0
ENDBLK
  5
6E
330
6B
100
AcDbEntity
  8
0
100
AcDbBlockEnd
  0
BLOCK
  5
7F
330
7D
100
AcDbEntity
  8
0
100
AcDbBlockBegin
  2
block 13
 70
     0
 10
0.0
 20
0.0
 30
0.0
  3
block 13
  1

  0
ENDBLK
  5
80
330
7D
100
AcDbEntity
  8
0
100
AcDbBlockEnd
  0
BLOCK
  5
FA
330
F8
100
AcDbEntity
  8
0
100
AcDbBlockBegin
  2
block 14
 70
     0
 10
0.0
 20
0.0
 30
0.0
  3
block 14
  1

  0
SPLINE
  5
FC
330
F8
100
AcDbEntity
  8
svg2
 62
     1
420
 16711680
370
    20
100
AcDbSpline
210
0.0
220
0.0
230
1.0
 70
     8
 71
     3
 72
    11
 73
     7
 74
     0
 42
0.0000000001
 43
0.0000000001
 12
1.0
 22
0.0
 32
0.0
 13
1.0
 23
0.0
 33
0.0
 40
0.0
 40
0.0
 40
0.0
 40
0.0
 40
1.0
 40
1.0
 40
1.0
 40
2.0
 40
2.0
 40
2.0
 40
2.0
 10
936.385717260353
 20
1400.967202291169
 30
0.0
 10
936.385717260353
 20
1404.881103421198
 30
0.0
 10
939.5585170071936
 20
1408.053816661515
 30
0.0
 10
943.472331630699
 20
1408.053816661515
 30
0.0
 10
947.3861462542045
 20
1408.053816661515
 30
0.0
 10
950.5589460010451
 20
1404.881103421198
 30
0.0
 10
950.5589460010451
 20
1400.967202291169
 30
0.0
  0
POLYLINE
  5
FD
330
F8
100
AcDbEntity
  8
svg2
 62
     1
420
 16711680
370
    20
100
AcDb2dPolyline
 66
     1
 10
0.0
 20
0.0
 30
0.0
  0
VERTEX
  5
FE
330
FD
100
AcDbEntity
  8
svg2
 62
     1
420
 16711680
370
    20
100
AcDbVertex
100
AcDb2dVertex
 10
950.5589460010451
 20
1400.967202291169
 30
0.0
  0
VERTEX
  5
FF
330
FD
100
AcDbEntity
  8
svg2
 62
     1
420
 16711680
370
    20
100
AcDbVertex
100
AcDb2dVertex
 10
960.4802061195296
 20
1400.967202291169
 30
0.0
  0
SEQEND
  5
100
330
FD
100
AcDbEntity
  8
svg2
 62
     1
420
 16711680
370
    20
  0
SPLINE
  5
101
330
F8
100
AcDbEntity
  8
svg2
 62
     1
420
 16711680
370
    20
100
AcDbSpline
210
0.0
220
0.0
230
1.0
 70
     8
 71
     3
 72
     8
 73
     4
 74
     0
 42
0.0000000001
 43
0.0000000001
 12
1.0
 22
0.0
 32
0.0
 13
1.0
 23
0.0
 33
0.0
 40
0.0
 40
0.0
 40
0.0
 40
0.0
 40
1.0
 40
1.0
 40
1.0
 40
1.0
 10
936.3856740070914
 20
1400.967202291169
 30
0.0
 10
936.3856740070914
 20
1360.228858392264
 30
0.0
 10
959.8788560243702
 20
1344.465985783536
 30
0.0
 10
959.7715663091258
 20
1309.691747611549
 30
0.0
  0
ENDBLK
  5
FB
330
F8
100
AcDbEntity
  8
0
100
AcDbBlockEnd
  0
BLOCK
  5
104
330
102
100
AcDbEntity
  8
0
100
AcDbBlockBegin
  2
block 15
 70
     0
 10
0.0
 20
0.0
 30
0.0
  3
block 15
  1

  0
SPLINE
  5
106
330
102
100
AcDbEntity
  8
svg2
 62
     1
420
 16711680
370
    20
100
AcDbSpline
210
0.0
220
0.0
230
1.0
 70
     8
 71
     3
 72
    11
 73
     7
 74
     0
 42
0.0000000001
 43
0.0000000001
 12
1.0
 22
0.0
 32
0.0
 13
1.0
 23
0.0
 33
0.0
 40
0.0
 40
0.0
 40
0.0
 40
0.0
 40
1.0
 40
1.0
 40
1.0
 40
2.0
 40
2.0
 40
2.0
 40
2.0
 10
1209.928880569296
 20
1400.967202291169
 30
0.0
 10
1209.928880569296
 20
1404.881103421198
 30
0.0
 10
1206.756080822455
 20
1408.053816661515
 30
0.0
 10
1202.84226619895
 20
1408.053816661515
 30
0.0
 10
1198.928451575444
 20
1408.053816661515
 30
0.0
 10
1195.755651828604
 20
1404.881103421198
 30
0.0
 10
1195.755651828604
 20
1400.967202291169
 30
0.0
  0
POLYLINE
  5
107
330
102
100
AcDbEntity
  8
svg2
 62
     1
420
 16711680
370
    20
100
AcDb2dPolyline
 66
     1
 10
0.0
 20
0.0
 30
0.0
  0
VERTEX
  5
108
330
107
100
AcDbEntity
  8
svg2
 62
     1
420
 16711680
370
    20
100
AcDbVertex
100
AcDb2dVertex
 10
1195.755651828604
 20
1400.967202291169
 30
0.0
  0
VERTEX
  5
109
330
107
100
AcDbEntity
  8
svg2
 62
     1
420
 16711680
370
    20
100
AcDbVertex
100
AcDb2dVertex
 10
1185.834391710119
 20
1400.967202291169
 30
0.0
  0
SEQEND
  5
10A
330
107
100
AcDbEntity
  8
svg2
 62
     1
420
 16711680
370
    20
  0
SPLINE
  5
10B
330
102
100
AcDbEntity
  8
svg2
 62
     1
420
 16711680
370
    20
100
AcDbSpline
210
0.0
220
0.0
230
1.0
 70
     8
 71
     3
 72
     8
 73
     4
 74
     0
 42
0.0000000001
 43
0.0000000001
 12
1.0
 22
0.0
 32
0.0
 13
1.0
 23
0.0
 33
0.0
 40
0.0
 40
0.0
 40
0.0
 40
0.0
 40
1.0
 40
1.0
 40
1.0
 40
1.0
 10
1209.928945449188
 20
1400.967202291169
 30
0.0
 10
1209.928945449188
 20
1360.228858392264
 30
0.0
 10
1186.435763431909
 20
1344.465985783536
 30
0.0
 10
1186.543053147154
 20
1309.691747611549
 30
0.0
  0
ENDBLK
  5
105
330
102
100
AcDbEntity
  8
0
100
AcDbBlockEnd
  0
BLOCK
  5
10E
330
10C
100
AcDbEntity
  8
0
100
AcDbBlockBegin
  2
block 16
 70
     0
 10
0.0
 20
0.0
 30
0.0
  3
block 16
  1

  0
INSERT
  5
111
330
10C
100
AcDbEntity
  8
svg2
100
AcDbBlockReference
  2
block 17
 10
0.0
 20
0.0
 30
0.0
  0
SPLINE
  5
119
330
10C
100
AcDbEntity
  8
svg2
 62
     1
420
 16711680
370
     5
100
AcDbSpline
210
0.0
220
0.0
230
1.0
 70
    11
 71
     3
 72
    17
 73
    13
 74
     0
 42
0.0000000001
 43
0.0000000001
 12
1.0
 22
0.0
 32
0.0
 13
1.0
 23
0.0
 33
0.0
 40
0.0
 40
0.0
 40
0.0
 40
0.0
 40
1.0
 40
1.0
 40
1.0
 40
2.0
 40
2.0
 40
2.0
 40
3.0
 40
3.0
 40
3.0
 40
4.0
 40
4.0
 40
4.0
 40
4.0
 10
1134.280022053685
 20
1376.903163728115
 30
0.0
 10
1134.280022053685
 20
1361.247905234093
 30
0.0
 10
1106.914299940621
 20
1348.556706246731
 30
0.0
 10
1073.157040460999
 20
1348.556706246731
 30
0.0
 10
1039.399780981377
 20
1348.556706246731
 30
0.0
 10
1012.034058868312
 20
1361.247905234093
 30
0.0
 10
1012.034058868312
 20
1376.903163728115
 30
0.0
 10
1012.034058868312
 20
1392.558422222137
 30
0.0
 10
1039.399780981377
 20
1405.249621209499
 30
0.0
 10
1073.157040460999
 20
1405.249621209499
 30
0.0
 10
1106.914299940621
 20
1405.249621209499
 30
0.0
 10
1134.280022053685
 20
1392.558422222137
 30
0.0
 10
1134.280022053685
 20
1376.903163728115
 30
0.0
  0
ENDBLK
  5
10F
330
10C
100
AcDbEntity
  8
0
100
AcDbBlockEnd
  0
BLOCK
  5
112
330
110
100
AcDbEntity
  8
0
100
AcDbBlockBegin
  2
block 17
 70
     0
 10
0.0
 20
0.0
 30
0.0
  3
block 17
  1

  0
SPLINE
  5
114
330
110
100
AcDbEntity
  8
svg2
 62
     1
420
 16711680
370
     5
100
AcDbSpline
210
0.0
220
0.0
230
1.0
 70
     8
 71
     3
 72
     8
 73
     4
 74
     0
 42
0.0000000001
 43
0.0000000001
 12
1.0
 22
0.0
 32
0.0
 13
1.0
 23
0.0
 33
0.0
 40
0.0
 40
0.0
 40
0.0
 40
0.0
 40
1.0
 40
1.0
 40
1.0
 40
1.0
 10
1178.253165343182
 20
1407.985640030558
 30
0.0
 10
1159.23449320337
 20
1407.985640030558
 30
0.0
 10
1140.215728521582
 20
1414.702214780691
 30
0.0
 10
1125.705053773416
 20
1428.135706963341
 30
0.0
  0
SPLINE
  5
115
330
110
100
AcDbEntity
  8
svg2
 62
     1
420
 16711680
370
     5
100
AcDbSpline
210
0.0
220
0.0
230
1.0
 70
     8
 71
     3
 72
     8
 73
     4
 74
     0
 42
0.0000000001
 43
0.0000000001
 12
1.0
 22
0.0
 32
0.0
 13
1.0
 23
0.0
 33
0.0
 40
0.0
 40
0.0
 40
0.0
 40
0.0
 40
1.0
 40
1.0
 40
1.0
 40
1.0
 10
1020.608923175863
 20
1428.135706963341
 30
0.0
 10
1049.630457756151
 20
1455.002348646256
 30
0.0
 10
1096.683611735107
 20
1455.002348646256
 30
0.0
 10
1125.705146315395
 20
1428.135706963341
 30
0.0
  0
SPLINE
  5
116
330
110
100
AcDbEntity
  8
svg2
 62
     1
420
 16711680
370
     5
100
AcDbSpline
210
0.0
220
0.0
230
1.0
 70
     8
 71
     3
 72
     8
 73
     4
 74
     0
 42
0.0000000001
 43
0.0000000001
 12
1.0
 22
0.0
 32
0.0
 13
1.0
 23
0.0
 33
0.0
 40
0.0
 40
0.0
 40
0.0
 40
0.0
 40
1.0
 40
1.0
 40
1.0
 40
1.0
 10
1020.608923175863
 20
1428.135706963341
 30
0.0
 10
1006.098248427699
 20
1414.702214780691
 30
0.0
 10
987.0792986619526
 20
1407.985640030558
 30
0.0
 10
968.0609966900556
 20
1407.985640030558
 30
0.0
  0
SPLINE
  5
117
330
110
100
AcDbEntity
  8
svg2
 62
     1
420
 16711680
370
     5
100
AcDbSpline
210
0.0
220
0.0
230
1.0
 70
     8
 71
     3
 72
     8
 73
     4
 74
     0
 42
0.0000000001
 43
0.0000000001
 12
1.0
 22
0.0
 32
0.0
 13
1.0
 23
0.0
 33
0.0
 40
0.0
 40
0.0
 40
0.0
 40
0.0
 40
1.0
 40
1.0
 40
1.0
 40
1.0
 10
960.4799578231505
 20
1400.967504781441
 30
0.0
 10
960.4799578231505
 20
1404.84358524056
 30
0.0
 10
963.8741199633041
 20
1407.985640030558
 30
0.0
 10
968.0609966900556
 20
1407.985640030558
 30
0.0
  0
SPLINE
  5
118
330
110
100
AcDbEntity
  8
svg2
 62
     1
420
 16711680
370
     5
100
AcDbSpline
210
0.0
220
0.0
230
1.0
 70
     8
 71
     3
 72
     8
 73
     4
 74
     0
 42
0.0000000001
 43
0.0000000001
 12
1.0
 22
0.0
 32
0.0
 13
1.0
 23
0.0
 33
0.0
 40
0.0
 40
0.0
 40
0.0
 40
0.0
 40
1.0
 40
1.0
 40
1.0
 40
1.0
 10
1185.834204210087
 20
1400.967504781441
 30
0.0
 10
1185.834204210087
 20
1404.84358524056
 30
0.0
 10
1182.440042069931
 20
1407.985640030558
 30
0.0
 10
1178.253165343182
 20
1407.985640030558
 30
0.0
  0
ENDBLK
  5
113
330
110
100
AcDbEntity
  8
0
100
AcDbBlockEnd
  0
BLOCK
  5
11C
330
11A
100
AcDbEntity
  8
0
100
AcDbBlockBegin
  2
block 18
 70
     0
 10
0.0
 20
0.0
 30
0.0
  3
block 18
  1

  0
POLYLINE
  5
11E
330
11A
100
AcDbEntity
  8
svg2
 62
     6
420
 16711935
370
     5
100
AcDb2dPolyline
 66
     1
 10
0.0
 20
0.0
 30
0.0
  0
VERTEX
  5
11F
330
11E
100
AcDbEntity
  8
svg2
 62
     6
420
 16711935
370
     5
100
AcDbVertex
100
AcDb2dVertex
 10
977.18709856633
 20
1125.263300675477
 30
0.0
  0
VERTEX
  5
120
330
11E
100
AcDbEntity
  8
svg2
 62
     6
420
 16711935
370
     5
100
AcDbVertex
100
AcDb2dVertex
 10
1066.049516735409
 20
1125.263300675477
 30
0.0
  0
SEQEND
  5
121
330
11E
100
AcDbEntity
  8
svg2
 62
     6
420
 16711935
370
     5
  0
POLYLINE
  5
122
330
11A
100
AcDbEntity
  8
svg2
 62
     6
420
 16711935
370
     5
100
AcDb2dPolyline
 66
     1
 10
0.0
 20
0.0
 30
0.0
  0
VERTEX
  5
123
330
122
100
AcDbEntity
  8
svg2
 62
     6
420
 16711935
370
     5
100
AcDbVertex
100
AcDb2dVertex
 10
1080.265185729928
 20
1125.263300675477
 30
0.0
  0
VERTEX
  5
124
330
122
100
AcDbEntity
  8
svg2
 62
     6
420
 16711935
370
     5
100
AcDbVertex
100
AcDb2dVertex
 10
1169.127788446185
 20
1125.263300675477
 30
0.0
  0
SEQEND
  5
125
330
122
100
AcDbEntity
  8
svg2
 62
     6
420
 16711935
370
     5
  0
POLYLINE
  5
126
330
11A
100
AcDbEntity
  8
svg2
 62
     6
420
 16711935
370
     5
100
AcDb2dPolyline
 66
     1
 10
0.0
 20
0.0
 30
0.0
  0
VERTEX
  5
127
330
126
100
AcDbEntity
  8
svg2
 62
     6
420
 16711935
370
     5
100
AcDbVertex
100
AcDb2dVertex
 10
959.7715660810154
 20
1117.244492012469
 30
0.0
  0
VERTEX
  5
128
330
126
100
AcDbEntity
  8
svg2
 62
     6
420
 16711935
370
     5
100
AcDbVertex
100
AcDb2dVertex
 10
1014.510657700786
 20
1117.244492012469
 30
0.0
  0
SEQEND
  5
129
330
126
100
AcDbEntity
  8
svg2
 62
     6
420
 16711935
370
     5
  0
POLYLINE
  5
12A
330
11A
100
AcDbEntity
  8
svg2
 62
     6
420
 16711935
370
     5
100
AcDb2dPolyline
 66
     1
 10
0.0
 20
0.0
 30
0.0
  0
VERTEX
  5
12B
330
12A
100
AcDbEntity
  8
svg2
 62
     6
420
 16711935
370
     5
100
AcDbVertex
100
AcDb2dVertex
 10
1028.726142148129
 20
1117.244492012469
 30
0.0
  0
VERTEX
  5
12C
330
12A
100
AcDbEntity
  8
svg2
 62
     6
420
 16711935
370
     5
100
AcDbVertex
100
AcDb2dVertex
 10
1117.58856031721
 20
1117.244492012469
 30
0.0
  0
SEQEND
  5
12D
330
12A
100
AcDbEntity
  8
svg2
 62
     6
420
 16711935
370
     5
  0
POLYLINE
  5
12E
330
11A
100
AcDbEntity
  8
svg2
 62
     6
420
 16711935
370
     5
100
AcDb2dPolyline
 66
     1
 10
0.0
 20
0.0
 30
0.0
  0
VERTEX
  5
12F
330
12E
100
AcDbEntity
  8
svg2
 62
     6
420
 16711935
370
     5
100
AcDbVertex
100
AcDb2dVertex
 10
1131.804229311727
 20
1117.244492012469
 30
0.0
  0
VERTEX
  5
130
330
12E
100
AcDbEntity
  8
svg2
 62
     6
420
 16711935
370
     5
100
AcDbVertex
100
AcDb2dVertex
 10
1186.543136384322
 20
1117.244492012469
 30
0.0
  0
SEQEND
  5
131
330
12E
100
AcDbEntity
  8
svg2
 62
     6
420
 16711935
370
     5
  0
POLYLINE
  5
132
330
11A
100
AcDbEntity
  8
svg2
 62
     6
420
 16711935
370
     5
100
AcDb2dPolyline
 66
     1
 10
0.0
 20
0.0
 30
0.0
  0
VERTEX
  5
133
330
132
100
AcDbEntity
  8
svg2
 62
     6
420
 16711935
370
     5
100
AcDbVertex
100
AcDb2dVertex
 10
977.18709856633
 20
1141.3005719754
 30
0.0
  0
VERTEX
  5
134
330
132
100
AcDbEntity
  8
svg2
 62
     6
420
 16711935
370
     5
100
AcDbVertex
100
AcDb2dVertex
 10
1066.049516735409
 20
1141.3005719754
 30
0.0
  0
SEQEND
  5
135
330
132
100
AcDbEntity
  8
svg2
 62
     6
420
 16711935
370
     5
  0
POLYLINE
  5
136
330
11A
100
AcDbEntity
  8
svg2
 62
     6
420
 16711935
370
     5
100
AcDb2dPolyline
 66
     1
 10
0.0
 20
0.0
 30
0.0
  0
VERTEX
  5
137
330
136
100
AcDbEntity
  8
svg2
 62
     6
420
 16711935
370
     5
100
AcDbVertex
100
AcDb2dVertex
 10
1080.265185729928
 20
1141.3005719754
 30
0.0
  0
VERTEX
  5
138
330
136
100
AcDbEntity
  8
svg2
 62
     6
420
 16711935
370
     5
100
AcDbVertex
100
AcDb2dVertex
 10
1169.127788446185
 20
1141.3005719754
 30
0.0
  0
SEQEND
  5
139
330
136
100
AcDbEntity
  8
svg2
 62
     6
420
 16711935
370
     5
  0
POLYLINE
  5
13A
330
11A
100
AcDbEntity
  8
svg2
 62
     6
420
 16711935
370
     5
100
AcDb2dPolyline
 66
     1
 10
0.0
 20
0.0
 30
0.0
  0
VERTEX
  5
13B
330
13A
100
AcDbEntity
  8
svg2
 62
     6
420
 16711935
370
     5
100
AcDbVertex
100
AcDb2dVertex
 10
959.7715660810154
 20
1133.281763312392
 30
0.0
  0
VERTEX
  5
13C
330
13A
100
AcDbEntity
  8
svg2
 62
     6
420
 16711935
370
     5
100
AcDbVertex
100
AcDb2dVertex
 10
1014.510657700786
 20
1133.281763312392
 30
0.0
  0
SEQEND
  5
13D
330
13A
100
AcDbEntity
  8
svg2
 62
     6
420
 16711935
370
     5
  0
POLYLINE
  5
13E
330
11A
100
AcDbEntity
  8
svg2
 62
     6
420
 16711935
370
     5
100
AcDb2dPolyline
 66
     1
 10
0.0
 20
0.0
 30
0.0
  0
VERTEX
  5
13F
330
13E
100
AcDbEntity
  8
svg2
 62
     6
420
 16711935
370
     5
100
AcDbVertex
100
AcDb2dVertex
 10
1028.726142148129
 20
1133.281763312392
 30
0.0
  0
VERTEX
  5
140
330
13E
100
AcDbEntity
  8
svg2
 62
     6
420
 16711935
370
     5
100
AcDbVertex
100
AcDb2dVertex
 10
1117.58856031721
 20
1133.281763312392
 30
0.0
  0
SEQEND
  5
141
330
13E
100
AcDbEntity
  8
svg2
 62
     6
420
 16711935
370
     5
  0
POLYLINE
  5
142
330
11A
100
AcDbEntity
  8
svg2
 62
     6
420
 16711935
370
     5
100
AcDb2dPolyline
 66
     1
 10
0.0
 20
0.0
 30
0.0
  0
VERTEX
  5
143
330
142
100
AcDbEntity
  8
svg2
 62
     6
420
 16711935
370
     5
100
AcDbVertex
100
AcDb2dVertex
 10
1131.804229311727
 20
1133.281763312392
 30
0.0
  0
VERTEX
  5
144
330
142
100
AcDbEntity
  8
svg2
 62
     6
420
 16711935
370
     5
100
AcDbVertex
100
AcDb2dVertex
 10
1186.543136384322
 20
1133.281763312392
 30
0.0
  0
SEQEND
  5
145
330
142
100
AcDbEntity
  8
svg2
 62
     6
420
 16711935
370
     5
  0
POLYLINE
  5
146
330
11A
100
AcDbEntity
  8
svg2
 62
     6
420
 16711935
370
     5
100
AcDb2dPolyline
 66
     1
 10
0.0
 20
0.0
 30
0.0
  0
VERTEX
  5
147
330
146
100
AcDbEntity
  8
svg2
 62
     6
420
 16711935
370
     5
100
AcDbVertex
100
AcDb2dVertex
 10
977.18709856633
 20
1157.337843275323
 30
0.0
  0
VERTEX
  5
148
330
146
100
AcDbEntity
  8
svg2
 62
     6
420
 16711935
370
     5
100
AcDbVertex
100
AcDb2dVertex
 10
1066.049516735409
 20
1157.337843275323
 30
0.0
  0
SEQEND
  5
149
330
146
100
AcDbEntity
  8
svg2
 62
     6
420
 16711935
370
     5
  0
POLYLINE
  5
14A
330
11A
100
AcDbEntity
  8
svg2
 62
     6
420
 16711935
370
     5
100
AcDb2dPolyline
 66
     1
 10
0.0
 20
0.0
 30
0.0
  0
VERTEX
  5
14B
330
14A
100
AcDbEntity
  8
svg2
 62
     6
420
 16711935
370
     5
100
AcDbVertex
100
AcDb2dVertex
 10
1080.265185729928
 20
1157.337843275323
 30
0.0
  0
VERTEX
  5
14C
330
14A
100
AcDbEntity
  8
svg2
 62
     6
420
 16711935
370
     5
100
AcDbVertex
100
AcDb2dVertex
 10
1169.127788446185
 20
1157.337843275323
 30
0.0
  0
SEQEND
  5
14D
330
14A
100
AcDbEntity
  8
svg2
 62
     6
420
 16711935
370
     5
  0
POLYLINE
  5
14E
330
11A
100
AcDbEntity
  8
svg2
 62
     6
420
 16711935
370
     5
100
AcDb2dPolyline
 66
     1
 10
0.0
 20
0.0
 30
0.0
  0
VERTEX
  5
14F
330
14E
100
AcDbEntity
  8
svg2
 62
     6
420
 16711935
370
     5
100
AcDbVertex
100
AcDb2dVertex
 10
959.7715660810154
 20
1149.319034612316
 30
0.0
  0
VERTEX
  5
150
330
14E
100
AcDbEntity
  8
svg2
 62
     6
420
 16711935
370
     5
100
AcDbVertex
100
AcDb2dVertex
 10
1014.510657700786
 20
1149.319034612316
 30
0.0
  0
SEQEND
  5
151
330
14E
100
AcDbEntity
  8
svg2
 62
     6
420
 16711935
370
     5
  0
POLYLINE
  5
152
330
11A
100
AcDbEntity
  8
svg2
 62
     6
420
 16711935
370
     5
100
AcDb2dPolyline
 66
     1
 10
0.0
 20
0.0
 30
0.0
  0
VERTEX
  5
153
330
152
100
AcDbEntity
  8
svg2
 62
     6
420
 16711935
370
     5
100
AcDbVertex
100
AcDb2dVertex
 10
1028.726142148129
 20
1149.319034612316
 30
0.0
  0
VERTEX
  5
154
330
152
100
AcDbEntity
  8
svg2
 62
     6
420
 16711935
370
     5
100
AcDbVertex
100
AcDb2dVertex
 10
1117.58856031721
 20
1149.319034612316
 30
0.0
  0
SEQEND
  5
155
330
152
100
AcDbEntity
  8
svg2
 62
     6
420
 16711935
370
     5
  0
POLYLINE
  5
156
330
11A
100
AcDbEntity
  8
svg2
 62
     6
420
 16711935
370
     5
100
AcDb2dPolyline
 66
     1
 10
0.0
 20
0.0
 30
0.0
  0
VERTEX
  5
157
330
156
100
AcDbEntity
  8
svg2
 62
     6
420
 16711935
370
     5
100
AcDbVertex
100
AcDb2dVertex
 10
1131.804229311727
 20
1149.319034612316
 30
0.0
  0
VERTEX
  5
158
330
156
100
AcDbEntity
  8
svg2
 62
     6
420
 16711935
370
     5
100
AcDbVertex
100
AcDb2dVertex
 10
1186.543136384322
 20
1149.319034612316
 30
0.0
  0
SEQEND
  5
159
330
156
100
AcDbEntity
  8
svg2
 62
     6
420
 16711935
370
     5
  0
POLYLINE
  5
15A
330
11A
100
AcDbEntity
  8
svg2
 62
     6
420
 16711935
370
     5
100
AcDb2dPolyline
 66
     1
 10
0.0
 20
0.0
 30
0.0
  0
VERTEX
  5
15B
330
15A
100
AcDbEntity
  8
svg2
 62
     6
420
 16711935
370
     5
100
AcDbVertex
100
AcDb2dVertex
 10
977.18709856633
 20
1173.374768549154
 30
0.0
  0
VERTEX
  5
15C
330
15A
100
AcDbEntity
  8
svg2
 62
     6
420
 16711935
370
     5
100
AcDbVertex
100
AcDb2dVertex
 10
1066.049516735409
 20
1173.374768549154
 30
0.0
  0
SEQEND
  5
15D
330
15A
100
AcDbEntity
  8
svg2
 62
     6
420
 16711935
370
     5
  0
POLYLINE
  5
15E
330
11A
100
AcDbEntity
  8
svg2
 62
     6
420
 16711935
370
     5
100
AcDb2dPolyline
 66
     1
 10
0.0
 20
0.0
 30
0.0
  0
VERTEX
  5
15F
330
15E
100
AcDbEntity
  8
svg2
 62
     6
420
 16711935
370
     5
100
AcDbVertex
100
AcDb2dVertex
 10
1080.265185729928
 20
1173.374768549154
 30
0.0
  0
VERTEX
  5
160
330
15E
100
AcDbEntity
  8
svg2
 62
     6
420
 16711935
370
     5
100
AcDbVertex
100
AcDb2dVertex
 10
1169.127788446185
 20
1173.374768549154
 30
0.0
  0
SEQEND
  5
161
330
15E
100
AcDbEntity
  8
svg2
 62
     6
420
 16711935
370
     5
  0
POLYLINE
  5
162
330
11A
100
AcDbEntity
  8
svg2
 62
     6
420
 16711935
370
     5
100
AcDb2dPolyline
 66
     1
 10
0.0
 20
0.0
 30
0.0
  0
VERTEX
  5
163
330
162
100
AcDbEntity
  8
svg2
 62
     6
420
 16711935
370
     5
100
AcDbVertex
100
AcDb2dVertex
 10
959.7715660810154
 20
1165.356305912239
 30
0.0
  0
VERTEX
  5
164
330
162
100
AcDbEntity
  8
svg2
 62
     6
420
 16711935
370
     5
100
AcDbVertex
100
AcDb2dVertex
 10
1014.510657700786
 20
1165.356305912239
 30
0.0
  0
SEQEND
  5
165
330
162
100
AcDbEntity
  8
svg2
 62
     6
420
 16711935
370
     5
  0
POLYLINE
  5
166
330
11A
100
AcDbEntity
  8
svg2
 62
     6
420
 16711935
370
     5
100
AcDb2dPolyline
 66
     1
 10
0.0
 20
0.0
 30
0.0
  0
VERTEX
  5
167
330
166
100
AcDbEntity
  8
svg2
 62
     6
420
 16711935
370
     5
100
AcDbVertex
100
AcDb2dVertex
 10
1028.726142148129
 20
1165.356305912239
 30
0.0
  0
VERTEX
  5
168
330
166
100
AcDbEntity
  8
svg2
 62
     6
420
 16711935
370
     5
100
AcDbVertex
100
AcDb2dVertex
 10
1117.58856031721
 20
1165.356305912239
 30
0.0
  0
SEQEND
  5
169
330
166
100
AcDbEntity
  8
svg2
 62
     6
420
 16711935
370
     5
  0
POLYLINE
  5
16A
330
11A
100
AcDbEntity
  8
svg2
 62
     6
420
 16711935
370
     5
100
AcDb2dPolyline
 66
     1
 10
0.0
 20
0.0
 30
0.0
  0
VERTEX
  5
16B
330
16A
100
AcDbEntity
  8
svg2
 62
     6
420
 16711935
370
     5
100
AcDbVertex
100
AcDb2dVertex
 10
1131.804229311727
 20
1165.356305912239
 30
0.0
  0
VERTEX
  5
16C
330
16A
100
AcDbEntity
  8
svg2
 62
     6
420
 16711935
370
     5
100
AcDbVertex
100
AcDb2dVertex
 10
1186.543136384322
 20
1165.356305912239
 30
0.0
  0
SEQEND
  5
16D
330
16A
100
AcDbEntity
  8
svg2
 62
     6
420
 16711935
370
     5
  0
POLYLINE
  5
16E
330
11A
100
AcDbEntity
  8
svg2
 62
     6
420
 16711935
370
     5
100
AcDb2dPolyline
 66
     1
 10
0.0
 20
0.0
 30
0.0
  0
VERTEX
  5
16F
330
16E
100
AcDbEntity
  8
svg2
 62
     6
420
 16711935
370
     5
100
AcDbVertex
100
AcDb2dVertex
 10
977.18709856633
 20
1189.41238587517
 30
0.0
  0
VERTEX
  5
170
330
16E
100
AcDbEntity
  8
svg2
 62
     6
420
 16711935
370
     5
100
AcDbVertex
100
AcDb2dVertex
 10
1066.049516735409
 20
1189.41238587517
 30
0.0
  0
SEQEND
  5
171
330
16E
100
AcDbEntity
  8
svg2
 62
     6
420
 16711935
370
     5
  0
POLYLINE
  5
172
330
11A
100
AcDbEntity
  8
svg2
 62
     6
420
 16711935
370
     5
100
AcDb2dPolyline
 66
     1
 10
0.0
 20
0.0
 30
0.0
  0
VERTEX
  5
173
330
172
100
AcDbEntity
  8
svg2
 62
     6
420
 16711935
370
     5
100
AcDbVertex
100
AcDb2dVertex
 10
1080.265185729928
 20
1189.41238587517
 30
0.0
  0
VERTEX
  5
174
330
172
100
AcDbEntity
  8
svg2
 62
     6
420
 16711935
370
     5
100
AcDbVertex
100
AcDb2dVertex
 10
1169.127788446185
 20
1189.41238587517
 30
0.0
  0
SEQEND
  5
175
330
172
100
AcDbEntity
  8
svg2
 62
     6
420
 16711935
370
     5
  0
POLYLINE
  5
176
330
11A
100
AcDbEntity
  8
svg2
 62
     6
420
 16711935
370
     5
100
AcDb2dPolyline
 66
     1
 10
0.0
 20
0.0
 30
0.0
  0
VERTEX
  5
177
330
176
100
AcDbEntity
  8
svg2
 62
     6
420
 16711935
370
     5
100
AcDbVertex
100
AcDb2dVertex
 10
959.7715660810154
 20
1181.393577212162
 30
0.0
  0
VERTEX
  5
178
330
176
100
AcDbEntity
  8
svg2
 62
     6
420
 16711935
370
     5
100
AcDbVertex
100
AcDb2dVertex
 10
1014.510657700786
 20
1181.393577212162
 30
0.0
  0
SEQEND
  5
179
330
176
100
AcDbEntity
  8
svg2
 62
     6
420
 16711935
370
     5
  0
POLYLINE
  5
17A
330
11A
100
AcDbEntity
  8
svg2
 62
     6
420
 16711935
370
     5
100
AcDb2dPolyline
 66
     1
 10
0.0
 20
0.0
 30
0.0
  0
VERTEX
  5
17B
330
17A
100
AcDbEntity
  8
svg2
 62
     6
420
 16711935
370
     5
100
AcDbVertex
100
AcDb2dVertex
 10
1028.726142148129
 20
1181.393577212162
 30
0.0
  0
VERTEX
  5
17C
330
17A
100
AcDbEntity
  8
svg2
 62
     6
420
 16711935
370
     5
100
AcDbVertex
100
AcDb2dVertex
 10
1117.58856031721
 20
1181.393577212162
 30
0.0
  0
SEQEND
  5
17D
330
17A
100
AcDbEntity
  8
svg2
 62
     6
420
 16711935
370
     5
  0
POLYLINE
  5
17E
330
11A
100
AcDbEntity
  8
svg2
 62
     6
420
 16711935
370
     5
100
AcDb2dPolyline
 66
     1
 10
0.0
 20
0.0
 30
0.0
  0
VERTEX
  5
17F
330
17E
100
AcDbEntity
  8
svg2
 62
     6
420
 16711935
370
     5
100
AcDbVertex
100
AcDb2dVertex
 10
1131.804229311727
 20
1181.393577212162
 30
0.0
  0
VERTEX
  5
180
330
17E
100
AcDbEntity
  8
svg2
 62
     6
420
 16711935
370
     5
100
AcDbVertex
100
AcDb2dVertex
 10
1186.543136384322
 20
1181.393577212162
 30
0.0
  0
SEQEND
  5
181
330
17E
100
AcDbEntity
  8
svg2
 62
     6
420
 16711935
370
     5
  0
POLYLINE
  5
182
330
11A
100
AcDbEntity
  8
svg2
 62
     6
420
 16711935
370
     5
100
AcDb2dPolyline
 66
     1
 10
0.0
 20
0.0
 30
0.0
  0
VERTEX
  5
183
330
182
100
AcDbEntity
  8
svg2
 62
     6
420
 16711935
370
     5
100
AcDbVertex
100
AcDb2dVertex
 10
977.18709856633
 20
1205.449657175093
 30
0.0
  0
VERTEX
  5
184
330
182
100
AcDbEntity
  8
svg2
 62
     6
420
 16711935
370
     5
100
AcDbVertex
100
AcDb2dVertex
 10
1066.049516735409
 20
1205.449657175093
 30
0.0
  0
SEQEND
  5
185
330
182
100
AcDbEntity
  8
svg2
 62
     6
420
 16711935
370
     5
  0
POLYLINE
  5
186
330
11A
100
AcDbEntity
  8
svg2
 62
     6
420
 16711935
370
     5
100
AcDb2dPolyline
 66
     1
 10
0.0
 20
0.0
 30
0.0
  0
VERTEX
  5
187
330
186
100
AcDbEntity
  8
svg2
 62
     6
420
 16711935
370
     5
100
AcDbVertex
100
AcDb2dVertex
 10
1080.265185729928
 20
1205.449657175093
 30
0.0
  0
VERTEX
  5
188
330
186
100
AcDbEntity
  8
svg2
 62
     6
420
 16711935
370
     5
100
AcDbVertex
100
AcDb2dVertex
 10
1169.127788446185
 20
1205.449657175093
 30
0.0
  0
SEQEND
  5
189
330
186
100
AcDbEntity
  8
svg2
 62
     6
420
 16711935
370
     5
  0
POLYLINE
  5
18A
330
11A
100
AcDbEntity
  8
svg2
 62
     6
420
 16711935
370
     5
100
AcDb2dPolyline
 66
     1
 10
0.0
 20
0.0
 30
0.0
  0
VERTEX
  5
18B
330
18A
100
AcDbEntity
  8
svg2
 62
     6
420
 16711935
370
     5
100
AcDbVertex
100
AcDb2dVertex
 10
959.7715660810154
 20
1197.430848512086
 30
0.0
  0
VERTEX
  5
18C
330
18A
100
AcDbEntity
  8
svg2
 62
     6
420
 16711935
370
     5
100
AcDbVertex
100
AcDb2dVertex
 10
1014.510657700786
 20
1197.430848512086
 30
0.0
  0
SEQEND
  5
18D
330
18A
100
AcDbEntity
  8
svg2
 62
     6
420
 16711935
370
     5
  0
POLYLINE
  5
18E
330
11A
100
AcDbEntity
  8
svg2
 62
     6
420
 16711935
370
     5
100
AcDb2dPolyline
 66
     1
 10
0.0
 20
0.0
 30
0.0
  0
VERTEX
  5
18F
330
18E
100
AcDbEntity
  8
svg2
 62
     6
420
 16711935
370
     5
100
AcDbVertex
100
AcDb2dVertex
 10
1028.726142148129
 20
1197.430848512086
 30
0.0
  0
VERTEX
  5
190
330
18E
100
AcDbEntity
  8
svg2
 62
     6
420
 16711935
370
     5
100
AcDbVertex
100
AcDb2dVertex
 10
1117.58856031721
 20
1197.430848512086
 30
0.0
  0
SEQEND
  5
191
330
18E
100
AcDbEntity
  8
svg2
 62
     6
420
 16711935
370
     5
  0
POLYLINE
  5
192
330
11A
100
AcDbEntity
  8
svg2
 62
     6
420
 16711935
370
     5
100
AcDb2dPolyline
 66
     1
 10
0.0
 20
0.0
 30
0.0
  0
VERTEX
  5
193
330
192
100
AcDbEntity
  8
svg2
 62
     6
420
 16711935
370
     5
100
AcDbVertex
100
AcDb2dVertex
 10
1131.804229311727
 20
1197.430848512086
 30
0.0
  0
VERTEX
  5
194
330
192
100
AcDbEntity
  8
svg2
 62
     6
420
 16711935
370
     5
100
AcDbVertex
100
AcDb2dVertex
 10
1186.543136384322
 20
1197.430848512086
 30
0.0
  0
SEQEND
  5
195
330
192
100
AcDbEntity
  8
svg2
 62
     6
420
 16711935
370
     5
  0
POLYLINE
  5
196
330
11A
100
AcDbEntity
  8
svg2
 62
     6
420
 16711935
370
     5
100
AcDb2dPolyline
 66
     1
 10
0.0
 20
0.0
 30
0.0
  0
VERTEX
  5
197
330
196
100
AcDbEntity
  8
svg2
 62
     6
420
 16711935
370
     5
100
AcDbVertex
100
AcDb2dVertex
 10
977.18709856633
 20
1221.486928475017
 30
0.0
  0
VERTEX
  5
198
330
196
100
AcDbEntity
  8
svg2
 62
     6
420
 16711935
370
     5
100
AcDbVertex
100
AcDb2dVertex
 10
1066.049516735409
 20
1221.486928475017
 30
0.0
  0
SEQEND
  5
199
330
196
100
AcDbEntity
  8
svg2
 62
     6
420
 16711935
370
     5
  0
POLYLINE
  5
19A
330
11A
100
AcDbEntity
  8
svg2
 62
     6
420
 16711935
370
     5
100
AcDb2dPolyline
 66
     1
 10
0.0
 20
0.0
 30
0.0
  0
VERTEX
  5
19B
330
19A
100
AcDbEntity
  8
svg2
 62
     6
420
 16711935
370
     5
100
AcDbVertex
100
AcDb2dVertex
 10
1080.265185729928
 20
1221.486928475017
 30
0.0
  0
VERTEX
  5
19C
330
19A
100
AcDbEntity
  8
svg2
 62
     6
420
 16711935
370
     5
100
AcDbVertex
100
AcDb2dVertex
 10
1169.127788446185
 20
1221.486928475017
 30
0.0
  0
SEQEND
  5
19D
330
19A
100
AcDbEntity
  8
svg2
 62
     6
420
 16711935
370
     5
  0
POLYLINE
  5
19E
330
11A
100
AcDbEntity
  8
svg2
 62
     6
420
 16711935
370
     5
100
AcDb2dPolyline
 66
     1
 10
0.0
 20
0.0
 30
0.0
  0
VERTEX
  5
19F
330
19E
100
AcDbEntity
  8
svg2
 62
     6
420
 16711935
370
     5
100
AcDbVertex
100
AcDb2dVertex
 10
959.7715660810154
 20
1213.468465838101
 30
0.0
  0
VERTEX
  5
1A0
330
19E
100
AcDbEntity
  8
svg2
 62
     6
420
 16711935
370
     5
100
AcDbVertex
100
AcDb2dVertex
 10
1014.510657700786
 20
1213.468465838101
 30
0.0
  0
SEQEND
  5
1A1
330
19E
100
AcDbEntity
  8
svg2
 62
     6
420
 16711935
370
     5
  0
POLYLINE
  5
1A2
330
11A
100
AcDbEntity
  8
svg2
 62
     6
420
 16711935
370
     5
100
AcDb2dPolyline
 66
     1
 10
0.0
 20
0.0
 30
0.0
  0
VERTEX
  5
1A3
330
1A2
100
AcDbEntity
  8
svg2
 62
     6
420
 16711935
370
     5
100
AcDbVertex
100
AcDb2dVertex
 10
1028.726142148129
 20
1213.468465838101
 30
0.0
  0
VERTEX
  5
1A4
330
1A2
100
AcDbEntity
  8
svg2
 62
     6
420
 16711935
370
     5
100
AcDbVertex
100
AcDb2dVertex
 10
1117.58856031721
 20
1213.468465838101
 30
0.0
  0
SEQEND
  5
1A5
330
1A2
100
AcDbEntity
  8
svg2
 62
     6
420
 16711935
370
     5
  0
POLYLINE
  5
1A6
330
11A
100
AcDbEntity
  8
svg2
 62
     6
420
 16711935
370
     5
100
AcDb2dPolyline
 66
     1
 10
0.0
 20
0.0
 30
0.0
  0
VERTEX
  5
1A7
330
1A6
100
AcDbEntity
  8
svg2
 62
     6
420
 16711935
370
     5
100
AcDbVertex
100
AcDb2dVertex
 10
1131.804229311727
 20
1213.468465838101
 30
0.0
  0
VERTEX
  5
1A8
330
1A6
100
AcDbEntity
  8
svg2
 62
     6
420
 16711935
370
     5
100
AcDbVertex
100
AcDb2dVertex
 10
1186.543136384322
 20
1213.468465838101
 30
0.0
  0
SEQEND
  5
1A9
330
1A6
100
AcDbEntity
  8
svg2
 62
     6
420
 16711935
370
     5
  0
POLYLINE
  5
1AA
330
11A
100
AcDbEntity
  8
svg2
 62
     6
420
 16711935
370
     5
100
AcDb2dPolyline
 66
     1
 10
0.0
 20
0.0
 30
0.0
  0
VERTEX
  5
1AB
330
1AA
100
AcDbEntity
  8
svg2
 62
     6
420
 16711935
370
     5
100
AcDbVertex
100
AcDb2dVertex
 10
977.18709856633
 20
1237.52419977494
 30
0.0
  0
VERTEX
  5
1AC
330
1AA
100
AcDbEntity
  8
svg2
 62
     6
420
 16711935
370
     5
100
AcDbVertex
100
AcDb2dVertex
 10
1066.049516735409
 20
1237.52419977494
 30
0.0
  0
SEQEND
  5
1AD
330
1AA
100
AcDbEntity
  8
svg2
 62
     6
420
 16711935
370
     5
  0
POLYLINE
  5
1AE
330
11A
100
AcDbEntity
  8
svg2
 62
     6
420
 16711935
370
     5
100
AcDb2dPolyline
 66
     1
 10
0.0
 20
0.0
 30
0.0
  0
VERTEX
  5
1AF
330
1AE
100
AcDbEntity
  8
svg2
 62
     6
420
 16711935
370
     5
100
AcDbVertex
100
AcDb2dVertex
 10
1080.265185729928
 20
1237.52419977494
 30
0.0
  0
VERTEX
  5
1B0
330
1AE
100
AcDbEntity
  8
svg2
 62
     6
420
 16711935
370
     5
100
AcDbVertex
100
AcDb2dVertex
 10
1169.127788446185
 20
1237.52419977494
 30
0.0
  0
SEQEND
  5
1B1
330
1AE
100
AcDbEntity
  8
svg2
 62
     6
420
 16711935
370
     5
  0
POLYLINE
  5
1B2
330
11A
100
AcDbEntity
  8
svg2
 62
     6
420
 16711935
370
     5
100
AcDb2dPolyline
 66
     1
 10
0.0
 20
0.0
 30
0.0
  0
VERTEX
  5
1B3
330
1B2
100
AcDbEntity
  8
svg2
 62
     6
420
 16711935
370
     5
100
AcDbVertex
100
AcDb2dVertex
 10
959.7715660810154
 20
1229.505737138024
 30
0.0
  0
VERTEX
  5
1B4
330
1B2
100
AcDbEntity
  8
svg2
 62
     6
420
 16711935
370
     5
100
AcDbVertex
100
AcDb2dVertex
 10
1014.510657700786
 20
1229.505737138024
 30
0.0
  0
SEQEND
  5
1B5
330
1B2
100
AcDbEntity
  8
svg2
 62
     6
420
 16711935
370
     5
  0
POLYLINE
  5
1B6
330
11A
100
AcDbEntity
  8
svg2
 62
     6
420
 16711935
370
     5
100
AcDb2dPolyline
 66
     1
 10
0.0
 20
0.0
 30
0.0
  0
VERTEX
  5
1B7
330
1B6
100
AcDbEntity
  8
svg2
 62
     6
420
 16711935
370
     5
100
AcDbVertex
100
AcDb2dVertex
 10
1028.726142148129
 20
1229.505737138024
 30
0.0
  0
VERTEX
  5
1B8
330
1B6
100
AcDbEntity
  8
svg2
 62
     6
420
 16711935
370
     5
100
AcDbVertex
100
AcDb2dVertex
 10
1117.58856031721
 20
1229.505737138024
 30
0.0
  0
SEQEND
  5
1B9
330
1B6
100
AcDbEntity
  8
svg2
 62
     6
420
 16711935
370
     5
  0
POLYLINE
  5
1BA
330
11A
100
AcDbEntity
  8
svg2
 62
     6
420
 16711935
370
     5
100
AcDb2dPolyline
 66
     1
 10
0.0
 20
0.0
 30
0.0
  0
VERTEX
  5
1BB
330
1BA
100
AcDbEntity
  8
svg2
 62
     6
420
 16711935
370
     5
100
AcDbVertex
100
AcDb2dVertex
 10
1131.804229311727
 20
1229.505737138024
 30
0.0
  0
VERTEX
  5
1BC
330
1BA
100
AcDbEntity
  8
svg2
 62
     6
420
 16711935
370
     5
100
AcDbVertex
100
AcDb2dVertex
 10
1186.543136384322
 20
1229.505737138024
 30
0.0
  0
SEQEND
  5
1BD
330
1BA
100
AcDbEntity
  8
svg2
 62
     6
420
 16711935
370
     5
  0
POLYLINE
  5
1BE
330
11A
100
AcDbEntity
  8
svg2
 62
     6
420
 16711935
370
     5
100
AcDb2dPolyline
 66
     1
 10
0.0
 20
0.0
 30
0.0
  0
VERTEX
  5
1BF
330
1BE
100
AcDbEntity
  8
svg2
 62
     6
420
 16711935
370
     5
100
AcDbVertex
100
AcDb2dVertex
 10
977.18709856633
 20
1253.561471074863
 30
0.0
  0
VERTEX
  5
1C0
330
1BE
100
AcDbEntity
  8
svg2
 62
     6
420
 16711935
370
     5
100
AcDbVertex
100
AcDb2dVertex
 10
1066.049516735409
 20
1253.561471074863
 30
0.0
  0
SEQEND
  5
1C1
330
1BE
100
AcDbEntity
  8
svg2
 62
     6
420
 16711935
370
     5
  0
POLYLINE
  5
1C2
330
11A
100
AcDbEntity
  8
svg2
 62
     6
420
 16711935
370
     5
100
AcDb2dPolyline
 66
     1
 10
0.0
 20
0.0
 30
0.0
  0
VERTEX
  5
1C3
330
1C2
100
AcDbEntity
  8
svg2
 62
     6
420
 16711935
370
     5
100
AcDbVertex
100
AcDb2dVertex
 10
1080.265185729928
 20
1253.561471074863
 30
0.0
  0
VERTEX
  5
1C4
330
1C2
100
AcDbEntity
  8
svg2
 62
     6
420
 16711935
370
     5
100
AcDbVertex
100
AcDb2dVertex
 10
1169.127788446185
 20
1253.561471074863
 30
0.0
  0
SEQEND
  5
1C5
330
1C2
100
AcDbEntity
  8
svg2
 62
     6
420
 16711935
370
     5
  0
POLYLINE
  5
1C6
330
11A
100
AcDbEntity
  8
svg2
 62
     6
420
 16711935
370
     5
100
AcDb2dPolyline
 66
     1
 10
0.0
 20
0.0
 30
0.0
  0
VERTEX
  5
1C7
330
1C6
100
AcDbEntity
  8
svg2
 62
     6
420
 16711935
370
     5
100
AcDbVertex
100
AcDb2dVertex
 10
959.7715660810154
 20
1245.543008437948
 30
0.0
  0
VERTEX
  5
1C8
330
1C6
100
AcDbEntity
  8
svg2
 62
     6
420
 16711935
370
     5
100
AcDbVertex
100
AcDb2dVertex
 10
1014.510657700786
 20
1245.543008437948
 30
0.0
  0
SEQEND
  5
1C9
330
1C6
100
AcDbEntity
  8
svg2
 62
     6
420
 16711935
370
     5
  0
POLYLINE
  5
1CA
330
11A
100
AcDbEntity
  8
svg2
 62
     6
420
 16711935
370
     5
100
AcDb2dPolyline
 66
     1
 10
0.0
 20
0.0
 30
0.0
  0
VERTEX
  5
1CB
330
1CA
100
AcDbEntity
  8
svg2
 62
     6
420
 16711935
370
     5
100
AcDbVertex
100
AcDb2dVertex
 10
1028.726142148129
 20
1245.543008437948
 30
0.0
  0
VERTEX
  5
1CC
330
1CA
100
AcDbEntity
  8
svg2
 62
     6
420
 16711935
370
     5
100
AcDbVertex
100
AcDb2dVertex
 10
1117.58856031721
 20
1245.543008437948
 30
0.0
  0
SEQEND
  5
1CD
330
1CA
100
AcDbEntity
  8
svg2
 62
     6
420
 16711935
370
     5
  0
POLYLINE
  5
1CE
330
11A
100
AcDbEntity
  8
svg2
 62
     6
420
 16711935
370
     5
100
AcDb2dPolyline
 66
     1
 10
0.0
 20
0.0
 30
0.0
  0
VERTEX
  5
1CF
330
1CE
100
AcDbEntity
  8
svg2
 62
     6
420
 16711935
370
     5
100
AcDbVertex
100
AcDb2dVertex
 10
1131.804229311727
 20
1245.543008437948
 30
0.0
  0
VERTEX
  5
1D0
330
1CE
100
AcDbEntity
  8
svg2
 62
     6
420
 16711935
370
     5
100
AcDbVertex
100
AcDb2dVertex
 10
1186.543136384322
 20
1245.543008437948
 30
0.0
  0
SEQEND
  5
1D1
330
1CE
100
AcDbEntity
  8
svg2
 62
     6
420
 16711935
370
     5
  0
POLYLINE
  5
1D2
330
11A
100
AcDbEntity
  8
svg2
 62
     6
420
 16711935
370
     5
100
AcDb2dPolyline
 66
     1
 10
0.0
 20
0.0
 30
0.0
  0
VERTEX
  5
1D3
330
1D2
100
AcDbEntity
  8
svg2
 62
     6
420
 16711935
370
     5
100
AcDbVertex
100
AcDb2dVertex
 10
977.18709856633
 20
1269.598742374787
 30
0.0
  0
VERTEX
  5
1D4
330
1D2
100
AcDbEntity
  8
svg2
 62
     6
420
 16711935
370
     5
100
AcDbVertex
100
AcDb2dVertex
 10
1066.049516735409
 20
1269.598742374787
 30
0.0
  0
SEQEND
  5
1D5
330
1D2
100
AcDbEntity
  8
svg2
 62
     6
420
 16711935
370
     5
  0
POLYLINE
  5
1D6
330
11A
100
AcDbEntity
  8
svg2
 62
     6
420
 16711935
370
     5
100
AcDb2dPolyline
 66
     1
 10
0.0
 20
0.0
 30
0.0
  0
VERTEX
  5
1D7
330
1D6
100
AcDbEntity
  8
svg2
 62
     6
420
 16711935
370
     5
100
AcDbVertex
100
AcDb2dVertex
 10
1080.265185729928
 20
1269.598742374787
 30
0.0
  0
VERTEX
  5
1D8
330
1D6
100
AcDbEntity
  8
svg2
 62
     6
420
 16711935
370
     5
100
AcDbVertex
100
AcDb2dVertex
 10
1169.127788446185
 20
1269.598742374787
 30
0.0
  0
SEQEND
  5
1D9
330
1D6
100
AcDbEntity
  8
svg2
 62
     6
420
 16711935
370
     5
  0
POLYLINE
  5
1DA
330
11A
100
AcDbEntity
  8
svg2
 62
     6
420
 16711935
370
     5
100
AcDb2dPolyline
 66
     1
 10
0.0
 20
0.0
 30
0.0
  0
VERTEX
  5
1DB
330
1DA
100
AcDbEntity
  8
svg2
 62
     6
420
 16711935
370
     5
100
AcDbVertex
100
AcDb2dVertex
 10
959.7715660810154
 20
1261.580279737871
 30
0.0
  0
VERTEX
  5
1DC
330
1DA
100
AcDbEntity
  8
svg2
 62
     6
420
 16711935
370
     5
100
AcDbVertex
100
AcDb2dVertex
 10
1014.510657700786
 20
1261.580279737871
 30
0.0
  0
SEQEND
  5
1DD
330
1DA
100
AcDbEntity
  8
svg2
 62
     6
420
 16711935
370
     5
  0
POLYLINE
  5
1DE
330
11A
100
AcDbEntity
  8
svg2
 62
     6
420
 16711935
370
     5
100
AcDb2dPolyline
 66
     1
 10
0.0
 20
0.0
 30
0.0
  0
VERTEX
  5
1DF
330
1DE
100
AcDbEntity
  8
svg2
 62
     6
420
 16711935
370
     5
100
AcDbVertex
100
AcDb2dVertex
 10
1028.726142148129
 20
1261.580279737871
 30
0.0
  0
VERTEX
  5
1E0
330
1DE
100
AcDbEntity
  8
svg2
 62
     6
420
 16711935
370
     5
100
AcDbVertex
100
AcDb2dVertex
 10
1117.58856031721
 20
1261.580279737871
 30
0.0
  0
SEQEND
  5
1E1
330
1DE
100
AcDbEntity
  8
svg2
 62
     6
420
 16711935
370
     5
  0
POLYLINE
  5
1E2
330
11A
100
AcDbEntity
  8
svg2
 62
     6
420
 16711935
370
     5
100
AcDb2dPolyline
 66
     1
 10
0.0
 20
0.0
 30
0.0
  0
VERTEX
  5
1E3
330
1E2
100
AcDbEntity
  8
svg2
 62
     6
420
 16711935
370
     5
100
AcDbVertex
100
AcDb2dVertex
 10
1131.804229311727
 20
1261.580279737871
 30
0.0
  0
VERTEX
  5
1E4
330
1E2
100
AcDbEntity
  8
svg2
 62
     6
420
 16711935
370
     5
100
AcDbVertex
100
AcDb2dVertex
 10
1186.543136384322
 20
1261.580279737871
 30
0.0
  0
SEQEND
  5
1E5
330
1E2
100
AcDbEntity
  8
svg2
 62
     6
420
 16711935
370
     5
  0
POLYLINE
  5
1E6
330
11A
100
AcDbEntity
  8
svg2
 62
     6
420
 16711935
370
     5
100
AcDb2dPolyline
 66
     1
 10
0.0
 20
0.0
 30
0.0
  0
VERTEX
  5
1E7
330
1E6
100
AcDbEntity
  8
svg2
 62
     6
420
 16711935
370
     5
100
AcDbVertex
100
AcDb2dVertex
 10
977.18709856633
 20
1285.635667648618
 30
0.0
  0
VERTEX
  5
1E8
330
1E6
100
AcDbEntity
  8
svg2
 62
     6
420
 16711935
370
     5
100
AcDbVertex
100
AcDb2dVertex
 10
1066.049516735409
 20
1285.635667648618
 30
0.0
  0
SEQEND
  5
1E9
330
1E6
100
AcDbEntity
  8
svg2
 62
     6
420
 16711935
370
     5
  0
POLYLINE
  5
1EA
330
11A
100
AcDbEntity
  8
svg2
 62
     6
420
 16711935
370
     5
100
AcDb2dPolyline
 66
     1
 10
0.0
 20
0.0
 30
0.0
  0
VERTEX
  5
1EB
330
1EA
100
AcDbEntity
  8
svg2
 62
     6
420
 16711935
370
     5
100
AcDbVertex
100
AcDb2dVertex
 10
1080.265185729928
 20
1285.635667648618
 30
0.0
  0
VERTEX
  5
1EC
330
1EA
100
AcDbEntity
  8
svg2
 62
     6
420
 16711935
370
     5
100
AcDbVertex
100
AcDb2dVertex
 10
1169.127788446185
 20
1285.635667648618
 30
0.0
  0
SEQEND
  5
1ED
330
1EA
100
AcDbEntity
  8
svg2
 62
     6
420
 16711935
370
     5
  0
POLYLINE
  5
1EE
330
11A
100
AcDbEntity
  8
svg2
 62
     6
420
 16711935
370
     5
100
AcDb2dPolyline
 66
     1
 10
0.0
 20
0.0
 30
0.0
  0
VERTEX
  5
1EF
330
1EE
100
AcDbEntity
  8
svg2
 62
     6
420
 16711935
370
     5
100
AcDbVertex
100
AcDb2dVertex
 10
959.7715660810154
 20
1277.617551037794
 30
0.0
  0
VERTEX
  5
1F0
330
1EE
100
AcDbEntity
  8
svg2
 62
     6
420
 16711935
370
     5
100
AcDbVertex
100
AcDb2dVertex
 10
1014.510657700786
 20
1277.617551037794
 30
0.0
  0
SEQEND
  5
1F1
330
1EE
100
AcDbEntity
  8
svg2
 62
     6
420
 16711935
370
     5
  0
POLYLINE
  5
1F2
330
11A
100
AcDbEntity
  8
svg2
 62
     6
420
 16711935
370
     5
100
AcDb2dPolyline
 66
     1
 10
0.0
 20
0.0
 30
0.0
  0
VERTEX
  5
1F3
330
1F2
100
AcDbEntity
  8
svg2
 62
     6
420
 16711935
370
     5
100
AcDbVertex
100
AcDb2dVertex
 10
1028.726142148129
 20
1277.617551037794
 30
0.0
  0
VERTEX
  5
1F4
330
1F2
100
AcDbEntity
  8
svg2
 62
     6
420
 16711935
370
     5
100
AcDbVertex
100
AcDb2dVertex
 10
1117.58856031721
 20
1277.617551037794
 30
0.0
  0
SEQEND
  5
1F5
330
1F2
100
AcDbEntity
  8
svg2
 62
     6
420
 16711935
370
     5
  0
POLYLINE
  5
1F6
330
11A
100
AcDbEntity
  8
svg2
 62
     6
420
 16711935
370
     5
100
AcDb2dPolyline
 66
     1
 10
0.0
 20
0.0
 30
0.0
  0
VERTEX
  5
1F7
330
1F6
100
AcDbEntity
  8
svg2
 62
     6
420
 16711935
370
     5
100
AcDbVertex
100
AcDb2dVertex
 10
1131.804229311727
 20
1277.617551037794
 30
0.0
  0
VERTEX
  5
1F8
330
1F6
100
AcDbEntity
  8
svg2
 62
     6
420
 16711935
370
     5
100
AcDbVertex
100
AcDb2dVertex
 10
1186.543136384322
 20
1277.617551037794
 30
0.0
  0
SEQEND
  5
1F9
330
1F6
100
AcDbEntity
  8
svg2
 62
     6
420
 16711935
370
     5
  0
POLYLINE
  5
1FA
330
11A
100
AcDbEntity
  8
svg2
 62
     6
420
 16711935
370
     5
100
AcDb2dPolyline
 66
     1
 10
0.0
 20
0.0
 30
0.0
  0
VERTEX
  5
1FB
330
1FA
100
AcDbEntity
  8
svg2
 62
     6
420
 16711935
370
     5
100
AcDbVertex
100
AcDb2dVertex
 10
977.18709856633
 20
1301.673284974633
 30
0.0
  0
VERTEX
  5
1FC
330
1FA
100
AcDbEntity
  8
svg2
 62
     6
420
 16711935
370
     5
100
AcDbVertex
100
AcDb2dVertex
 10
1066.049516735409
 20
1301.673284974633
 30
0.0
  0
SEQEND
  5
1FD
330
1FA
100
AcDbEntity
  8
svg2
 62
     6
420
 16711935
370
     5
  0
POLYLINE
  5
1FE
330
11A
100
AcDbEntity
  8
svg2
 62
     6
420
 16711935
370
     5
100
AcDb2dPolyline
 66
     1
 10
0.0
 20
0.0
 30
0.0
  0
VERTEX
  5
1FF
330
1FE
100
AcDbEntity
  8
svg2
 62
     6
420
 16711935
370
     5
100
AcDbVertex
100
AcDb2dVertex
 10
1080.265185729928
 20
1301.673284974633
 30
0.0
  0
VERTEX
  5
200
330
1FE
100
AcDbEntity
  8
svg2
 62
     6
420
 16711935
370
     5
100
AcDbVertex
100
AcDb2dVertex
 10
1169.127788446185
 20
1301.673284974633
 30
0.0
  0
SEQEND
  5
201
330
1FE
100
AcDbEntity
  8
svg2
 62
     6
420
 16711935
370
     5
  0
POLYLINE
  5
202
330
11A
100
AcDbEntity
  8
svg2
 62
     6
420
 16711935
370
     5
100
AcDb2dPolyline
 66
     1
 10
0.0
 20
0.0
 30
0.0
  0
VERTEX
  5
203
330
202
100
AcDbEntity
  8
svg2
 62
     6
420
 16711935
370
     5
100
AcDbVertex
100
AcDb2dVertex
 10
959.7715660810154
 20
1293.654822337718
 30
0.0
  0
VERTEX
  5
204
330
202
100
AcDbEntity
  8
svg2
 62
     6
420
 16711935
370
     5
100
AcDbVertex
100
AcDb2dVertex
 10
1014.510657700786
 20
1293.654822337718
 30
0.0
  0
SEQEND
  5
205
330
202
100
AcDbEntity
  8
svg2
 62
     6
420
 16711935
370
     5
  0
POLYLINE
  5
206
330
11A
100
AcDbEntity
  8
svg2
 62
     6
420
 16711935
370
     5
100
AcDb2dPolyline
 66
     1
 10
0.0
 20
0.0
 30
0.0
  0
VERTEX
  5
207
330
206
100
AcDbEntity
  8
svg2
 62
     6
420
 16711935
370
     5
100
AcDbVertex
100
AcDb2dVertex
 10
1028.726142148129
 20
1293.654822337718
 30
0.0
  0
VERTEX
  5
208
330
206
100
AcDbEntity
  8
svg2
 62
     6
420
 16711935
370
     5
100
AcDbVertex
100
AcDb2dVertex
 10
1117.58856031721
 20
1293.654822337718
 30
0.0
  0
SEQEND
  5
209
330
206
100
AcDbEntity
  8
svg2
 62
     6
420
 16711935
370
     5
  0
POLYLINE
  5
20A
330
11A
100
AcDbEntity
  8
svg2
 62
     6
420
 16711935
370
     5
100
AcDb2dPolyline
 66
     1
 10
0.0
 20
0.0
 30
0.0
  0
VERTEX
  5
20B
330
20A
100
AcDbEntity
  8
svg2
 62
     6
420
 16711935
370
     5
100
AcDbVertex
100
AcDb2dVertex
 10
1131.804229311727
 20
1293.654822337718
 30
0.0
  0
VERTEX
  5
20C
330
20A
100
AcDbEntity
  8
svg2
 62
     6
420
 16711935
370
     5
100
AcDbVertex
100
AcDb2dVertex
 10
1186.543136384322
 20
1293.654822337718
 30
0.0
  0
SEQEND
  5
20D
330
20A
100
AcDbEntity
  8
svg2
 62
     6
420
 16711935
370
     5
  0
POLYLINE
  5
20E
330
11A
100
AcDbEntity
  8
svg2
 62
     6
420
 16711935
370
     5
100
AcDb2dPolyline
 66
     1
 10
0.0
 20
0.0
 30
0.0
  0
VERTEX
  5
20F
330
20E
100
AcDbEntity
  8
svg2
 62
     6
420
 16711935
370
     5
100
AcDbVertex
100
AcDb2dVertex
 10
959.7715660810154
 20
1309.691747611549
 30
0.0
  0
VERTEX
  5
210
330
20E
100
AcDbEntity
  8
svg2
 62
     6
420
 16711935
370
     5
100
AcDbVertex
100
AcDb2dVertex
 10
1014.510657700786
 20
1309.691747611549
 30
0.0
  0
SEQEND
  5
211
330
20E
100
AcDbEntity
  8
svg2
 62
     6
420
 16711935
370
     5
  0
POLYLINE
  5
212
330
11A
100
AcDbEntity
  8
svg2
 62
     6
420
 16711935
370
     5
100
AcDb2dPolyline
 66
     1
 10
0.0
 20
0.0
 30
0.0
  0
VERTEX
  5
213
330
212
100
AcDbEntity
  8
svg2
 62
     6
420
 16711935
370
     5
100
AcDbVertex
100
AcDb2dVertex
 10
1028.726142148129
 20
1309.691747611549
 30
0.0
  0
VERTEX
  5
214
330
212
100
AcDbEntity
  8
svg2
 62
     6
420
 16711935
370
     5
100
AcDbVertex
100
AcDb2dVertex
 10
1117.58856031721
 20
1309.691747611549
 30
0.0
  0
SEQEND
  5
215
330
212
100
AcDbEntity
  8
svg2
 62
     6
420
 16711935
370
     5
  0
POLYLINE
  5
216
330
11A
100
AcDbEntity
  8
svg2
 62
     6
420
 16711935
370
     5
100
AcDb2dPolyline
 66
     1
 10
0.0
 20
0.0
 30
0.0
  0
VERTEX
  5
217
330
216
100
AcDbEntity
  8
svg2
 62
     6
420
 16711935
370
     5
100
AcDbVertex
100
AcDb2dVertex
 10
1131.804229311727
 20
1309.691747611549
 30
0.0
  0
VERTEX
  5
218
330
216
100
AcDbEntity
  8
svg2
 62
     6
420
 16711935
370
     5
100
AcDbVertex
100
AcDb2dVertex
 10
1186.543136384322
 20
1309.691747611549
 30
0.0
  0
SEQEND
  5
219
330
216
100
AcDbEntity
  8
svg2
 62
     6
420
 16711935
370
     5
  0
ENDBLK
  5
11D
330
11A
100
AcDbEntity
  8
0
100
AcDbBlockEnd
  0
BLOCK
  5
249
330
247
100
AcDbEntity
  8
0
100
AcDbBlockBegin
  2
block 19
 70
     0
 10
0.0
 20
0.0
 30
0.0
  3
block 19
  1

  0
POLYLINE
  5
24B
330
247
100
AcDbEntity
  8
svg2
 62
     6
420
 16711935
370
     5
100
AcDb2dPolyline
 66
     1
 10
0.0
 20
0.0
 30
0.0
  0
VERTEX
  5
24C
330
24B
100
AcDbEntity
  8
svg2
 62
     6
420
 16711935
370
     5
100
AcDbVertex
100
AcDb2dVertex
 10
1205.264984615093
 20
1125.263300675477
 30
0.0
  0
VERTEX
  5
24D
330
24B
100
AcDbEntity
  8
svg2
 62
     6
420
 16711935
370
     5
100
AcDbVertex
100
AcDb2dVertex
 10
1300.792120147284
 20
1125.263300675477
 30
0.0
  0
SEQEND
  5
24E
330
24B
100
AcDbEntity
  8
svg2
 62
     6
420
 16711935
370
     5
  0
POLYLINE
  5
24F
330
247
100
AcDbEntity
  8
svg2
 62
     6
420
 16711935
370
     5
100
AcDb2dPolyline
 66
     1
 10
0.0
 20
0.0
 30
0.0
  0
VERTEX
  5
250
330
24F
100
AcDbEntity
  8
svg2
 62
     6
420
 16711935
370
     5
100
AcDbVertex
100
AcDb2dVertex
 10
1316.07397007552
 20
1125.263300675477
 30
0.0
  0
VERTEX
  5
251
330
24F
100
AcDbEntity
  8
svg2
 62
     6
420
 16711935
370
     5
100
AcDbVertex
100
AcDb2dVertex
 10
1411.601303996002
 20
1125.263300675477
 30
0.0
  0
SEQEND
  5
252
330
24F
100
AcDbEntity
  8
svg2
 62
     6
420
 16711935
370
     5
  0
POLYLINE
  5
253
330
247
100
AcDbEntity
  8
svg2
 62
     6
420
 16711935
370
     5
100
AcDb2dPolyline
 66
     1
 10
0.0
 20
0.0
 30
0.0
  0
VERTEX
  5
254
330
253
100
AcDbEntity
  8
svg2
 62
     6
420
 16711935
370
     5
100
AcDbVertex
100
AcDb2dVertex
 10
1186.543280137905
 20
1117.244492012469
 30
0.0
  0
VERTEX
  5
255
330
253
100
AcDbEntity
  8
svg2
 62
     6
420
 16711935
370
     5
100
AcDbVertex
100
AcDb2dVertex
 10
1245.387825805359
 20
1117.244492012469
 30
0.0
  0
SEQEND
  5
256
330
253
100
AcDbEntity
  8
svg2
 62
     6
420
 16711935
370
     5
  0
POLYLINE
  5
257
330
247
100
AcDbEntity
  8
svg2
 62
     6
420
 16711935
370
     5
100
AcDb2dPolyline
 66
     1
 10
0.0
 20
0.0
 30
0.0
  0
VERTEX
  5
258
330
257
100
AcDbEntity
  8
svg2
 62
     6
420
 16711935
370
     5
100
AcDbVertex
100
AcDb2dVertex
 10
1260.669477345307
 20
1117.244492012469
 30
0.0
  0
VERTEX
  5
259
330
257
100
AcDbEntity
  8
svg2
 62
     6
420
 16711935
370
     5
100
AcDbVertex
100
AcDb2dVertex
 10
1356.196612877498
 20
1117.244492012469
 30
0.0
  0
SEQEND
  5
25A
330
257
100
AcDbEntity
  8
svg2
 62
     6
420
 16711935
370
     5
  0
POLYLINE
  5
25B
330
247
100
AcDbEntity
  8
svg2
 62
     6
420
 16711935
370
     5
100
AcDb2dPolyline
 66
     1
 10
0.0
 20
0.0
 30
0.0
  0
VERTEX
  5
25C
330
25B
100
AcDbEntity
  8
svg2
 62
     6
420
 16711935
370
     5
100
AcDbVertex
100
AcDb2dVertex
 10
1371.478462805735
 20
1117.244492012469
 30
0.0
  0
VERTEX
  5
25D
330
25B
100
AcDbEntity
  8
svg2
 62
     6
420
 16711935
370
     5
100
AcDbVertex
100
AcDb2dVertex
 10
1430.322810084901
 20
1117.244492012469
 30
0.0
  0
SEQEND
  5
25E
330
25B
100
AcDbEntity
  8
svg2
 62
     6
420
 16711935
370
     5
  0
POLYLINE
  5
25F
330
247
100
AcDbEntity
  8
svg2
 62
     6
420
 16711935
370
     5
100
AcDb2dPolyline
 66
     1
 10
0.0
 20
0.0
 30
0.0
  0
VERTEX
  5
260
330
25F
100
AcDbEntity
  8
svg2
 62
     6
420
 16711935
370
     5
100
AcDbVertex
100
AcDb2dVertex
 10
1205.264984615093
 20
1141.3005719754
 30
0.0
  0
VERTEX
  5
261
330
25F
100
AcDbEntity
  8
svg2
 62
     6
420
 16711935
370
     5
100
AcDbVertex
100
AcDb2dVertex
 10
1300.792120147284
 20
1141.3005719754
 30
0.0
  0
SEQEND
  5
262
330
25F
100
AcDbEntity
  8
svg2
 62
     6
420
 16711935
370
     5
  0
POLYLINE
  5
263
330
247
100
AcDbEntity
  8
svg2
 62
     6
420
 16711935
370
     5
100
AcDb2dPolyline
 66
     1
 10
0.0
 20
0.0
 30
0.0
  0
VERTEX
  5
264
330
263
100
AcDbEntity
  8
svg2
 62
     6
420
 16711935
370
     5
100
AcDbVertex
100
AcDb2dVertex
 10
1316.07397007552
 20
1141.3005719754
 30
0.0
  0
VERTEX
  5
265
330
263
100
AcDbEntity
  8
svg2
 62
     6
420
 16711935
370
     5
100
AcDbVertex
100
AcDb2dVertex
 10
1411.601303996002
 20
1141.3005719754
 30
0.0
  0
SEQEND
  5
266
330
263
100
AcDbEntity
  8
svg2
 62
     6
420
 16711935
370
     5
  0
POLYLINE
  5
267
330
247
100
AcDbEntity
  8
svg2
 62
     6
420
 16711935
370
     5
100
AcDb2dPolyline
 66
     1
 10
0.0
 20
0.0
 30
0.0
  0
VERTEX
  5
268
330
267
100
AcDbEntity
  8
svg2
 62
     6
420
 16711935
370
     5
100
AcDbVertex
100
AcDb2dVertex
 10
1187.212642226154
 20
1133.281763312392
 30
0.0
  0
VERTEX
  5
269
330
267
100
AcDbEntity
  8
svg2
 62
     6
420
 16711935
370
     5
100
AcDbVertex
100
AcDb2dVertex
 10
1245.387627417071
 20
1133.281763312392
 30
0.0
  0
SEQEND
  5
26A
330
267
100
AcDbEntity
  8
svg2
 62
     6
420
 16711935
370
     5
  0
POLYLINE
  5
26B
330
247
100
AcDbEntity
  8
svg2
 62
     6
420
 16711935
370
     5
100
AcDb2dPolyline
 66
     1
 10
0.0
 20
0.0
 30
0.0
  0
VERTEX
  5
26C
330
26B
100
AcDbEntity
  8
svg2
 62
     6
420
 16711935
370
     5
100
AcDbVertex
100
AcDb2dVertex
 10
1260.669477345307
 20
1133.281763312392
 30
0.0
  0
VERTEX
  5
26D
330
26B
100
AcDbEntity
  8
svg2
 62
     6
420
 16711935
370
     5
100
AcDbVertex
100
AcDb2dVertex
 10
1356.196612877498
 20
1133.281763312392
 30
0.0
  0
SEQEND
  5
26E
330
26B
100
AcDbEntity
  8
svg2
 62
     6
420
 16711935
370
     5
  0
POLYLINE
  5
26F
330
247
100
AcDbEntity
  8
svg2
 62
     6
420
 16711935
370
     5
100
AcDb2dPolyline
 66
     1
 10
0.0
 20
0.0
 30
0.0
  0
VERTEX
  5
270
330
26F
100
AcDbEntity
  8
svg2
 62
     6
420
 16711935
370
     5
100
AcDbVertex
100
AcDb2dVertex
 10
1211.635430974246
 20
1157.337843275323
 30
0.0
  0
VERTEX
  5
271
330
26F
100
AcDbEntity
  8
svg2
 62
     6
420
 16711935
370
     5
100
AcDbVertex
100
AcDb2dVertex
 10
1300.792120147284
 20
1157.337843275323
 30
0.0
  0
SEQEND
  5
272
330
26F
100
AcDbEntity
  8
svg2
 62
     6
420
 16711935
370
     5
  0
POLYLINE
  5
273
330
247
100
AcDbEntity
  8
svg2
 62
     6
420
 16711935
370
     5
100
AcDb2dPolyline
 66
     1
 10
0.0
 20
0.0
 30
0.0
  0
VERTEX
  5
274
330
273
100
AcDbEntity
  8
svg2
 62
     6
420
 16711935
370
     5
100
AcDbVertex
100
AcDb2dVertex
 10
1316.07397007552
 20
1157.337843275323
 30
0.0
  0
VERTEX
  5
275
330
273
100
AcDbEntity
  8
svg2
 62
     6
420
 16711935
370
     5
100
AcDbVertex
100
AcDb2dVertex
 10
1405.230857636849
 20
1157.337843275323
 30
0.0
  0
SEQEND
  5
276
330
273
100
AcDbEntity
  8
svg2
 62
     6
420
 16711935
370
     5
  0
POLYLINE
  5
277
330
247
100
AcDbEntity
  8
svg2
 62
     6
420
 16711935
370
     5
100
AcDb2dPolyline
 66
     1
 10
0.0
 20
0.0
 30
0.0
  0
VERTEX
  5
278
330
277
100
AcDbEntity
  8
svg2
 62
     6
420
 16711935
370
     5
100
AcDbVertex
100
AcDb2dVertex
 10
1189.27627721192
 20
1149.319034612316
 30
0.0
  0
VERTEX
  5
279
330
277
100
AcDbEntity
  8
svg2
 62
     6
420
 16711935
370
     5
100
AcDbVertex
100
AcDb2dVertex
 10
1245.387627417071
 20
1149.319034612316
 30
0.0
  0
SEQEND
  5
27A
330
277
100
AcDbEntity
  8
svg2
 62
     6
420
 16711935
370
     5
  0
POLYLINE
  5
27B
330
247
100
AcDbEntity
  8
svg2
 62
     6
420
 16711935
370
     5
100
AcDb2dPolyline
 66
     1
 10
0.0
 20
0.0
 30
0.0
  0
VERTEX
  5
27C
330
27B
100
AcDbEntity
  8
svg2
 62
     6
420
 16711935
370
     5
100
AcDbVertex
100
AcDb2dVertex
 10
1260.669477345307
 20
1149.319034612316
 30
0.0
  0
VERTEX
  5
27D
330
27B
100
AcDbEntity
  8
svg2
 62
     6
420
 16711935
370
     5
100
AcDbVertex
100
AcDb2dVertex
 10
1356.196612877498
 20
1149.319034612316
 30
0.0
  0
SEQEND
  5
27E
330
27B
100
AcDbEntity
  8
svg2
 62
     6
420
 16711935
370
     5
  0
POLYLINE
  5
27F
330
247
100
AcDbEntity
  8
svg2
 62
     6
420
 16711935
370
     5
100
AcDb2dPolyline
 66
     1
 10
0.0
 20
0.0
 30
0.0
  0
VERTEX
  5
280
330
27F
100
AcDbEntity
  8
svg2
 62
     6
420
 16711935
370
     5
100
AcDbVertex
100
AcDb2dVertex
 10
1218.00567894511
 20
1173.374768549154
 30
0.0
  0
VERTEX
  5
281
330
27F
100
AcDbEntity
  8
svg2
 62
     6
420
 16711935
370
     5
100
AcDbVertex
100
AcDb2dVertex
 10
1300.792120147284
 20
1173.374768549154
 30
0.0
  0
SEQEND
  5
282
330
27F
100
AcDbEntity
  8
svg2
 62
     6
420
 16711935
370
     5
  0
POLYLINE
  5
283
330
247
100
AcDbEntity
  8
svg2
 62
     6
420
 16711935
370
     5
100
AcDb2dPolyline
 66
     1
 10
0.0
 20
0.0
 30
0.0
  0
VERTEX
  5
284
330
283
100
AcDbEntity
  8
svg2
 62
     6
420
 16711935
370
     5
100
AcDbVertex
100
AcDb2dVertex
 10
1316.07397007552
 20
1173.374768549154
 30
0.0
  0
VERTEX
  5
285
330
283
100
AcDbEntity
  8
svg2
 62
     6
420
 16711935
370
     5
100
AcDbVertex
100
AcDb2dVertex
 10
1398.860609665984
 20
1173.374768549154
 30
0.0
  0
SEQEND
  5
286
330
283
100
AcDbEntity
  8
svg2
 62
     6
420
 16711935
370
     5
  0
POLYLINE
  5
287
330
247
100
AcDbEntity
  8
svg2
 62
     6
420
 16711935
370
     5
100
AcDb2dPolyline
 66
     1
 10
0.0
 20
0.0
 30
0.0
  0
VERTEX
  5
288
330
287
100
AcDbEntity
  8
svg2
 62
     6
420
 16711935
370
     5
100
AcDbVertex
100
AcDb2dVertex
 10
1192.723472127576
 20
1165.356305912239
 30
0.0
  0
VERTEX
  5
289
330
287
100
AcDbEntity
  8
svg2
 62
     6
420
 16711935
370
     5
100
AcDbVertex
100
AcDb2dVertex
 10
1245.387627417071
 20
1165.356305912239
 30
0.0
  0
SEQEND
  5
28A
330
287
100
AcDbEntity
  8
svg2
 62
     6
420
 16711935
370
     5
  0
POLYLINE
  5
28B
330
247
100
AcDbEntity
  8
svg2
 62
     6
420
 16711935
370
     5
100
AcDb2dPolyline
 66
     1
 10
0.0
 20
0.0
 30
0.0
  0
VERTEX
  5
28C
330
28B
100
AcDbEntity
  8
svg2
 62
     6
420
 16711935
370
     5
100
AcDbVertex
100
AcDb2dVertex
 10
1260.669477345307
 20
1165.356305912239
 30
0.0
  0
VERTEX
  5
28D
330
28B
100
AcDbEntity
  8
svg2
 62
     6
420
 16711935
370
     5
100
AcDbVertex
100
AcDb2dVertex
 10
1356.196612877498
 20
1165.356305912239
 30
0.0
  0
SEQEND
  5
28E
330
28B
100
AcDbEntity
  8
svg2
 62
     6
420
 16711935
370
     5
  0
POLYLINE
  5
28F
330
247
100
AcDbEntity
  8
svg2
 62
     6
420
 16711935
370
     5
100
AcDb2dPolyline
 66
     1
 10
0.0
 20
0.0
 30
0.0
  0
VERTEX
  5
290
330
28F
100
AcDbEntity
  8
svg2
 62
     6
420
 16711935
370
     5
100
AcDbVertex
100
AcDb2dVertex
 10
1197.413569675979
 20
1181.393577212162
 30
0.0
  0
VERTEX
  5
291
330
28F
100
AcDbEntity
  8
svg2
 62
     6
420
 16711935
370
     5
100
AcDbVertex
100
AcDb2dVertex
 10
1245.387627417071
 20
1181.393577212162
 30
0.0
  0
SEQEND
  5
292
330
28F
100
AcDbEntity
  8
svg2
 62
     6
420
 16711935
370
     5
  0
POLYLINE
  5
293
330
247
100
AcDbEntity
  8
svg2
 62
     6
420
 16711935
370
     5
100
AcDb2dPolyline
 66
     1
 10
0.0
 20
0.0
 30
0.0
  0
VERTEX
  5
294
330
293
100
AcDbEntity
  8
svg2
 62
     6
420
 16711935
370
     5
100
AcDbVertex
100
AcDb2dVertex
 10
1260.669477345307
 20
1181.393577212162
 30
0.0
  0
VERTEX
  5
295
330
293
100
AcDbEntity
  8
svg2
 62
     6
420
 16711935
370
     5
100
AcDbVertex
100
AcDb2dVertex
 10
1356.196612877498
 20
1181.393577212162
 30
0.0
  0
SEQEND
  5
296
330
293
100
AcDbEntity
  8
svg2
 62
     6
420
 16711935
370
     5
  0
POLYLINE
  5
297
330
247
100
AcDbEntity
  8
svg2
 62
     6
420
 16711935
370
     5
100
AcDb2dPolyline
 66
     1
 10
0.0
 20
0.0
 30
0.0
  0
VERTEX
  5
298
330
297
100
AcDbEntity
  8
svg2
 62
     6
420
 16711935
370
     5
100
AcDbVertex
100
AcDb2dVertex
 10
1429.606429972077
 20
1133.281763312392
 30
0.0
  0
VERTEX
  5
299
330
297
100
AcDbEntity
  8
svg2
 62
     6
420
 16711935
370
     5
100
AcDbVertex
100
AcDb2dVertex
 10
1371.478264417445
 20
1133.281763312392
 30
0.0
  0
SEQEND
  5
29A
330
297
100
AcDbEntity
  8
svg2
 62
     6
420
 16711935
370
     5
  0
POLYLINE
  5
29B
330
247
100
AcDbEntity
  8
svg2
 62
     6
420
 16711935
370
     5
100
AcDb2dPolyline
 66
     1
 10
0.0
 20
0.0
 30
0.0
  0
VERTEX
  5
29C
330
29B
100
AcDbEntity
  8
svg2
 62
     6
420
 16711935
370
     5
100
AcDbVertex
100
AcDb2dVertex
 10
1427.54279498631
 20
1149.319034612316
 30
0.0
  0
VERTEX
  5
29D
330
29B
100
AcDbEntity
  8
svg2
 62
     6
420
 16711935
370
     5
100
AcDbVertex
100
AcDb2dVertex
 10
1371.478462805735
 20
1149.319034612316
 30
0.0
  0
SEQEND
  5
29E
330
29B
100
AcDbEntity
  8
svg2
 62
     6
420
 16711935
370
     5
  0
POLYLINE
  5
29F
330
247
100
AcDbEntity
  8
svg2
 62
     6
420
 16711935
370
     5
100
AcDb2dPolyline
 66
     1
 10
0.0
 20
0.0
 30
0.0
  0
VERTEX
  5
2A0
330
29F
100
AcDbEntity
  8
svg2
 62
     6
420
 16711935
370
     5
100
AcDbVertex
100
AcDb2dVertex
 10
1424.142618095228
 20
1165.356305912239
 30
0.0
  0
VERTEX
  5
2A1
330
29F
100
AcDbEntity
  8
svg2
 62
     6
420
 16711935
370
     5
100
AcDbVertex
100
AcDb2dVertex
 10
1371.478462805735
 20
1165.356305912239
 30
0.0
  0
SEQEND
  5
2A2
330
29F
100
AcDbEntity
  8
svg2
 62
     6
420
 16711935
370
     5
  0
POLYLINE
  5
2A3
330
247
100
AcDbEntity
  8
svg2
 62
     6
420
 16711935
370
     5
100
AcDb2dPolyline
 66
     1
 10
0.0
 20
0.0
 30
0.0
  0
VERTEX
  5
2A4
330
2A3
100
AcDbEntity
  8
svg2
 62
     6
420
 16711935
370
     5
100
AcDbVertex
100
AcDb2dVertex
 10
1419.452520546825
 20
1181.393577212162
 30
0.0
  0
VERTEX
  5
2A5
330
2A3
100
AcDbEntity
  8
svg2
 62
     6
420
 16711935
370
     5
100
AcDbVertex
100
AcDb2dVertex
 10
1371.478462805735
 20
1181.393577212162
 30
0.0
  0
SEQEND
  5
2A6
330
2A3
100
AcDbEntity
  8
svg2
 62
     6
420
 16711935
370
     5
  0
ENDBLK
  5
24A
330
247
100
AcDbEntity
  8
0
100
AcDbBlockEnd
  0
BLOCK
  5
2F4
330
2F2
100
AcDbEntity
  8
0
100
AcDbBlockBegin
  2
block 20
 70
     0
 10
0.0
 20
0.0
 30
0.0
  3
block 20
  1

  0
SPLINE
  5
2F6
330
2F2
100
AcDbEntity
  8
svg2
 62
     1
420
 16711680
370
    20
100
AcDbSpline
210
0.0
220
0.0
230
1.0
 70
     8
 71
     3
 72
    11
 73
     7
 74
     0
 42
0.0000000001
 43
0.0000000001
 12
1.0
 22
0.0
 32
0.0
 13
1.0
 23
0.0
 33
0.0
 40
0.0
 40
0.0
 40
0.0
 40
0.0
 40
1.0
 40
1.0
 40
1.0
 40
2.0
 40
2.0
 40
2.0
 40
2.0
 10
1406.938122542655
 20
1400.967548317261
 30
0.0
 10
1406.938122542655
 20
1404.88144944729
 30
0.0
 10
1410.110922289496
 20
1408.054162687607
 30
0.0
 10
1414.024736913001
 20
1408.054162687607
 30
0.0
 10
1417.938551536507
 20
1408.054162687607
 30
0.0
 10
1421.111351283347
 20
1404.88144944729
 30
0.0
 10
1421.111351283347
 20
1400.967548317261
 30
0.0
  0
POLYLINE
  5
2F7
330
2F2
100
AcDbEntity
  8
svg2
 62
     1
420
 16711680
370
    20
100
AcDb2dPolyline
 66
     1
 10
0.0
 20
0.0
 30
0.0
  0
VERTEX
  5
2F8
330
2F7
100
AcDbEntity
  8
svg2
 62
     1
420
 16711680
370
    20
100
AcDbVertex
100
AcDb2dVertex
 10
1421.111351283347
 20
1400.967548317261
 30
0.0
  0
VERTEX
  5
2F9
330
2F7
100
AcDbEntity
  8
svg2
 62
     1
420
 16711680
370
    20
100
AcDbVertex
100
AcDb2dVertex
 10
1431.032611401832
 20
1400.967548317261
 30
0.0
  0
SEQEND
  5
2FA
330
2F7
100
AcDbEntity
  8
svg2
 62
     1
420
 16711680
370
    20
  0
SPLINE
  5
2FB
330
2F2
100
AcDbEntity
  8
svg2
 62
     1
420
 16711680
370
    20
100
AcDbSpline
210
0.0
220
0.0
230
1.0
 70
     8
 71
     3
 72
     8
 73
     4
 74
     0
 42
0.0000000001
 43
0.0000000001
 12
1.0
 22
0.0
 32
0.0
 13
1.0
 23
0.0
 33
0.0
 40
0.0
 40
0.0
 40
0.0
 40
0.0
 40
1.0
 40
1.0
 40
1.0
 40
1.0
 10
1406.938079289393
 20
1400.967548317261
 30
0.0
 10
1406.938079289393
 20
1360.229204418356
 30
0.0
 10
1430.431261306672
 20
1344.466331809628
 30
0.0
 10
1430.323971591428
 20
1309.692093637641
 30
0.0
  0
ENDBLK
  5
2F5
330
2F2
100
AcDbEntity
  8
0
100
AcDbBlockEnd
  0
BLOCK
  5
2FE
330
2FC
100
AcDbEntity
  8
0
100
AcDbBlockBegin
  2
block 21
 70
     0
 10
0.0
 20
0.0
 30
0.0
  3
block 21
  1

  0
SPLINE
  5
300
330
2FC
100
AcDbEntity
  8
svg2
 62
     1
420
 16711680
370
    20
100
AcDbSpline
210
0.0
220
0.0
230
1.0
 70
     8
 71
     3
 72
    11
 73
     7
 74
     0
 42
0.0000000001
 43
0.0000000001
 12
1.0
 22
0.0
 32
0.0
 13
1.0
 23
0.0
 33
0.0
 40
0.0
 40
0.0
 40
0.0
 40
0.0
 40
1.0
 40
1.0
 40
1.0
 40
2.0
 40
2.0
 40
2.0
 40
2.0
 10
1680.481458864644
 20
1400.967375304215
 30
0.0
 10
1680.481458864644
 20
1404.881276434244
 30
0.0
 10
1677.308659117803
 20
1408.053989674561
 30
0.0
 10
1673.394844494298
 20
1408.053989674561
 30
0.0
 10
1669.481029870793
 20
1408.053989674561
 30
0.0
 10
1666.308230123952
 20
1404.881276434244
 30
0.0
 10
1666.308230123952
 20
1400.967375304215
 30
0.0
  0
POLYLINE
  5
301
330
2FC
100
AcDbEntity
  8
svg2
 62
     1
420
 16711680
370
    20
100
AcDb2dPolyline
 66
     1
 10
0.0
 20
0.0
 30
0.0
  0
VERTEX
  5
302
330
301
100
AcDbEntity
  8
svg2
 62
     1
420
 16711680
370
    20
100
AcDbVertex
100
AcDb2dVertex
 10
1666.308230123952
 20
1400.967375304215
 30
0.0
  0
VERTEX
  5
303
330
301
100
AcDbEntity
  8
svg2
 62
     1
420
 16711680
370
    20
100
AcDbVertex
100
AcDb2dVertex
 10
1656.386970005467
 20
1400.967375304215
 30
0.0
  0
SEQEND
  5
304
330
301
100
AcDbEntity
  8
svg2
 62
     1
420
 16711680
370
    20
  0
SPLINE
  5
305
330
2FC
100
AcDbEntity
  8
svg2
 62
     1
420
 16711680
370
    20
100
AcDbSpline
210
0.0
220
0.0
230
1.0
 70
     8
 71
     3
 72
     8
 73
     4
 74
     0
 42
0.0000000001
 43
0.0000000001
 12
1.0
 22
0.0
 32
0.0
 13
1.0
 23
0.0
 33
0.0
 40
0.0
 40
0.0
 40
0.0
 40
0.0
 40
1.0
 40
1.0
 40
1.0
 40
1.0
 10
1680.481523744536
 20
1400.967375304215
 30
0.0
 10
1680.481523744536
 20
1360.22903140531
 30
0.0
 10
1656.988341727258
 20
1344.466158796582
 30
0.0
 10
1657.095631442502
 20
1309.691920624595
 30
0.0
  0
ENDBLK
  5
2FF
330
2FC
100
AcDbEntity
  8
0
100
AcDbBlockEnd
  0
BLOCK
  5
308
330
306
100
AcDbEntity
  8
0
100
AcDbBlockBegin
  2
block 22
 70
     0
 10
0.0
 20
0.0
 30
0.0
  3
block 22
  1

  0
INSERT
  5
30B
330
306
100
AcDbEntity
  8
svg2
100
AcDbBlockReference
  2
block 23
 10
0.0
 20
0.0
 30
0.0
  0
SPLINE
  5
313
330
306
100
AcDbEntity
  8
svg2
 62
     1
420
 16711680
370
     5
100
AcDbSpline
210
0.0
220
0.0
230
1.0
 70
    11
 71
     3
 72
    17
 73
    13
 74
     0
 42
0.0000000001
 43
0.0000000001
 12
1.0
 22
0.0
 32
0.0
 13
1.0
 23
0.0
 33
0.0
 40
0.0
 40
0.0
 40
0.0
 40
0.0
 40
1.0
 40
1.0
 40
1.0
 40
2.0
 40
2.0
 40
2.0
 40
3.0
 40
3.0
 40
3.0
 40
4.0
 40
4.0
 40
4.0
 40
4.0
 10
1604.832600349033
 20
1376.903336741161
 30
0.0
 10
1604.832600349033
 20
1361.248078247139
 30
0.0
 10
1577.466878235969
 20
1348.556879259777
 30
0.0
 10
1543.709618756347
 20
1348.556879259777
 30
0.0
 10
1509.952359276725
 20
1348.556879259777
 30
0.0
 10
1482.58663716366
 20
1361.248078247139
 30
0.0
 10
1482.58663716366
 20
1376.903336741161
 30
0.0
 10
1482.58663716366
 20
1392.558595235183
 30
0.0
 10
1509.952359276725
 20
1405.249794222545
 30
0.0
 10
1543.709618756347
 20
1405.249794222545
 30
0.0
 10
1577.466878235969
 20
1405.249794222545
 30
0.0
 10
1604.832600349033
 20
1392.558595235183
 30
0.0
 10
1604.832600349033
 20
1376.903336741161
 30
0.0
  0
ENDBLK
  5
309
330
306
100
AcDbEntity
  8
0
100
AcDbBlockEnd
  0
BLOCK
  5
30C
330
30A
100
AcDbEntity
  8
0
100
AcDbBlockBegin
  2
block 23
 70
     0
 10
0.0
 20
0.0
 30
0.0
  3
block 23
  1

  0
SPLINE
  5
30E
330
30A
100
AcDbEntity
  8
svg2
 62
     1
420
 16711680
370
     5
100
AcDbSpline
210
0.0
220
0.0
230
1.0
 70
     8
 71
     3
 72
     8
 73
     4
 74
     0
 42
0.0000000001
 43
0.0000000001
 12
1.0
 22
0.0
 32
0.0
 13
1.0
 23
0.0
 33
0.0
 40
0.0
 40
0.0
 40
0.0
 40
0.0
 40
1.0
 40
1.0
 40
1.0
 40
1.0
 10
1648.80574363853
 20
1407.985813043604
 30
0.0
 10
1629.787071498718
 20
1407.985813043604
 30
0.0
 10
1610.76830681693
 20
1414.702387793737
 30
0.0
 10
1596.257632068764
 20
1428.135879976388
 30
0.0
  0
SPLINE
  5
30F
330
30A
100
AcDbEntity
  8
svg2
 62
     1
420
 16711680
370
     5
100
AcDbSpline
210
0.0
220
0.0
230
1.0
 70
     8
 71
     3
 72
     8
 73
     4
 74
     0
 42
0.0000000001
 43
0.0000000001
 12
1.0
 22
0.0
 32
0.0
 13
1.0
 23
0.0
 33
0.0
 40
0.0
 40
0.0
 40
0.0
 40
0.0
 40
1.0
 40
1.0
 40
1.0
 40
1.0
 10
1491.161501471212
 20
1428.135879976388
 30
0.0
 10
1520.1830360515
 20
1455.002521659302
 30
0.0
 10
1567.236190030455
 20
1455.002521659302
 30
0.0
 10
1596.257724610743
 20
1428.135879976388
 30
0.0
  0
SPLINE
  5
310
330
30A
100
AcDbEntity
  8
svg2
 62
     1
420
 16711680
370
     5
100
AcDbSpline
210
0.0
220
0.0
230
1.0
 70
     8
 71
     3
 72
     8
 73
     4
 74
     0
 42
0.0000000001
 43
0.0000000001
 12
1.0
 22
0.0
 32
0.0
 13
1.0
 23
0.0
 33
0.0
 40
0.0
 40
0.0
 40
0.0
 40
0.0
 40
1.0
 40
1.0
 40
1.0
 40
1.0
 10
1491.161501471212
 20
1428.135879976388
 30
0.0
 10
1476.650826723047
 20
1414.702387793737
 30
0.0
 10
1457.631876957301
 20
1407.985813043604
 30
0.0
 10
1438.613574985404
 20
1407.985813043604
 30
0.0
  0
SPLINE
  5
311
330
30A
100
AcDbEntity
  8
svg2
 62
     1
420
 16711680
370
     5
100
AcDbSpline
210
0.0
220
0.0
230
1.0
 70
     8
 71
     3
 72
     8
 73
     4
 74
     0
 42
0.0000000001
 43
0.0000000001
 12
1.0
 22
0.0
 32
0.0
 13
1.0
 23
0.0
 33
0.0
 40
0.0
 40
0.0
 40
0.0
 40
0.0
 40
1.0
 40
1.0
 40
1.0
 40
1.0
 10
1431.032536118499
 20
1400.967677794487
 30
0.0
 10
1431.032536118499
 20
1404.843758253606
 30
0.0
 10
1434.426698258652
 20
1407.985813043604
 30
0.0
 10
1438.613574985404
 20
1407.985813043604
 30
0.0
  0
SPLINE
  5
312
330
30A
100
AcDbEntity
  8
svg2
 62
     1
420
 16711680
370
     5
100
AcDbSpline
210
0.0
220
0.0
230
1.0
 70
     8
 71
     3
 72
     8
 73
     4
 74
     0
 42
0.0000000001
 43
0.0000000001
 12
1.0
 22
0.0
 32
0.0
 13
1.0
 23
0.0
 33
0.0
 40
0.0
 40
0.0
 40
0.0
 40
0.0
 40
1.0
 40
1.0
 40
1.0
 40
1.0
 10
1656.386782505435
 20
1400.967677794487
 30
0.0
 10
1656.386782505435
 20
1404.843758253606
 30
0.0
 10
1652.992620365279
 20
1407.985813043604
 30
0.0
 10
1648.80574363853
 20
1407.985813043604
 30
0.0
  0
ENDBLK
  5
30D
330
30A
100
AcDbEntity
  8
0
100
AcDbBlockEnd
  0
BLOCK
  5
316
330
314
100
AcDbEntity
  8
0
100
AcDbBlockBegin
  2
block 24
 70
     0
 10
0.0
 20
0.0
 30
0.0
  3
block 24
  1

  0
POLYLINE
  5
318
330
314
100
AcDbEntity
  8
svg2
 62
     6
420
 16711935
370
     5
100
AcDb2dPolyline
 66
     1
 10
0.0
 20
0.0
 30
0.0
  0
VERTEX
  5
319
330
318
100
AcDbEntity
  8
svg2
 62
     6
420
 16711935
370
     5
100
AcDbVertex
100
AcDb2dVertex
 10
1447.739676861678
 20
1125.263473688523
 30
0.0
  0
VERTEX
  5
31A
330
318
100
AcDbEntity
  8
svg2
 62
     6
420
 16711935
370
     5
100
AcDbVertex
100
AcDb2dVertex
 10
1536.602095030757
 20
1125.263473688523
 30
0.0
  0
SEQEND
  5
31B
330
318
100
AcDbEntity
  8
svg2
 62
     6
420
 16711935
370
     5
  0
POLYLINE
  5
31C
330
314
100
AcDbEntity
  8
svg2
 62
     6
420
 16711935
370
     5
100
AcDb2dPolyline
 66
     1
 10
0.0
 20
0.0
 30
0.0
  0
VERTEX
  5
31D
330
31C
100
AcDbEntity
  8
svg2
 62
     6
420
 16711935
370
     5
100
AcDbVertex
100
AcDb2dVertex
 10
1550.817764025276
 20
1125.263473688523
 30
0.0
  0
VERTEX
  5
31E
330
31C
100
AcDbEntity
  8
svg2
 62
     6
420
 16711935
370
     5
100
AcDbVertex
100
AcDb2dVertex
 10
1639.680366741533
 20
1125.263473688523
 30
0.0
  0
SEQEND
  5
31F
330
31C
100
AcDbEntity
  8
svg2
 62
     6
420
 16711935
370
     5
  0
POLYLINE
  5
320
330
314
100
AcDbEntity
  8
svg2
 62
     6
420
 16711935
370
     5
100
AcDb2dPolyline
 66
     1
 10
0.0
 20
0.0
 30
0.0
  0
VERTEX
  5
321
330
320
100
AcDbEntity
  8
svg2
 62
     6
420
 16711935
370
     5
100
AcDbVertex
100
AcDb2dVertex
 10
1430.324144376364
 20
1117.244665025515
 30
0.0
  0
VERTEX
  5
322
330
320
100
AcDbEntity
  8
svg2
 62
     6
420
 16711935
370
     5
100
AcDbVertex
100
AcDb2dVertex
 10
1485.063235996135
 20
1117.244665025515
 30
0.0
  0
SEQEND
  5
323
330
320
100
AcDbEntity
  8
svg2
 62
     6
420
 16711935
370
     5
  0
POLYLINE
  5
324
330
314
100
AcDbEntity
  8
svg2
 62
     6
420
 16711935
370
     5
100
AcDb2dPolyline
 66
     1
 10
0.0
 20
0.0
 30
0.0
  0
VERTEX
  5
325
330
324
100
AcDbEntity
  8
svg2
 62
     6
420
 16711935
370
     5
100
AcDbVertex
100
AcDb2dVertex
 10
1499.278720443477
 20
1117.244665025515
 30
0.0
  0
VERTEX
  5
326
330
324
100
AcDbEntity
  8
svg2
 62
     6
420
 16711935
370
     5
100
AcDbVertex
100
AcDb2dVertex
 10
1588.141138612558
 20
1117.244665025515
 30
0.0
  0
SEQEND
  5
327
330
324
100
AcDbEntity
  8
svg2
 62
     6
420
 16711935
370
     5
  0
POLYLINE
  5
328
330
314
100
AcDbEntity
  8
svg2
 62
     6
420
 16711935
370
     5
100
AcDb2dPolyline
 66
     1
 10
0.0
 20
0.0
 30
0.0
  0
VERTEX
  5
329
330
328
100
AcDbEntity
  8
svg2
 62
     6
420
 16711935
370
     5
100
AcDbVertex
100
AcDb2dVertex
 10
1602.356807607075
 20
1117.244665025515
 30
0.0
  0
VERTEX
  5
32A
330
328
100
AcDbEntity
  8
svg2
 62
     6
420
 16711935
370
     5
100
AcDbVertex
100
AcDb2dVertex
 10
1657.09571467967
 20
1117.244665025515
 30
0.0
  0
SEQEND
  5
32B
330
328
100
AcDbEntity
  8
svg2
 62
     6
420
 16711935
370
     5
  0
POLYLINE
  5
32C
330
314
100
AcDbEntity
  8
svg2
 62
     6
420
 16711935
370
     5
100
AcDb2dPolyline
 66
     1
 10
0.0
 20
0.0
 30
0.0
  0
VERTEX
  5
32D
330
32C
100
AcDbEntity
  8
svg2
 62
     6
420
 16711935
370
     5
100
AcDbVertex
100
AcDb2dVertex
 10
1447.739676861678
 20
1141.300744988446
 30
0.0
  0
VERTEX
  5
32E
330
32C
100
AcDbEntity
  8
svg2
 62
     6
420
 16711935
370
     5
100
AcDbVertex
100
AcDb2dVertex
 10
1536.602095030757
 20
1141.300744988446
 30
0.0
  0
SEQEND
  5
32F
330
32C
100
AcDbEntity
  8
svg2
 62
     6
420
 16711935
370
     5
  0
POLYLINE
  5
330
330
314
100
AcDbEntity
  8
svg2
 62
     6
420
 16711935
370
     5
100
AcDb2dPolyline
 66
     1
 10
0.0
 20
0.0
 30
0.0
  0
VERTEX
  5
331
330
330
100
AcDbEntity
  8
svg2
 62
     6
420
 16711935
370
     5
100
AcDbVertex
100
AcDb2dVertex
 10
1550.817764025276
 20
1141.300744988446
 30
0.0
  0
VERTEX
  5
332
330
330
100
AcDbEntity
  8
svg2
 62
     6
420
 16711935
370
     5
100
AcDbVertex
100
AcDb2dVertex
 10
1639.680366741533
 20
1141.300744988446
 30
0.0
  0
SEQEND
  5
333
330
330
100
AcDbEntity
  8
svg2
 62
     6
420
 16711935
370
     5
  0
POLYLINE
  5
334
330
314
100
AcDbEntity
  8
svg2
 62
     6
420
 16711935
370
     5
100
AcDb2dPolyline
 66
     1
 10
0.0
 20
0.0
 30
0.0
  0
VERTEX
  5
335
330
334
100
AcDbEntity
  8
svg2
 62
     6
420
 16711935
370
     5
100
AcDbVertex
100
AcDb2dVertex
 10
1430.324144376364
 20
1133.281936325438
 30
0.0
  0
VERTEX
  5
336
330
334
100
AcDbEntity
  8
svg2
 62
     6
420
 16711935
370
     5
100
AcDbVertex
100
AcDb2dVertex
 10
1485.063235996135
 20
1133.281936325438
 30
0.0
  0
SEQEND
  5
337
330
334
100
AcDbEntity
  8
svg2
 62
     6
420
 16711935
370
     5
  0
POLYLINE
  5
338
330
314
100
AcDbEntity
  8
svg2
 62
     6
420
 16711935
370
     5
100
AcDb2dPolyline
 66
     1
 10
0.0
 20
0.0
 30
0.0
  0
VERTEX
  5
339
330
338
100
AcDbEntity
  8
svg2
 62
     6
420
 16711935
370
     5
100
AcDbVertex
100
AcDb2dVertex
 10
1499.278720443477
 20
1133.281936325438
 30
0.0
  0
VERTEX
  5
33A
330
338
100
AcDbEntity
  8
svg2
 62
     6
420
 16711935
370
     5
100
AcDbVertex
100
AcDb2dVertex
 10
1588.141138612558
 20
1133.281936325438
 30
0.0
  0
SEQEND
  5
33B
330
338
100
AcDbEntity
  8
svg2
 62
     6
420
 16711935
370
     5
  0
POLYLINE
  5
33C
330
314
100
AcDbEntity
  8
svg2
 62
     6
420
 16711935
370
     5
100
AcDb2dPolyline
 66
     1
 10
0.0
 20
0.0
 30
0.0
  0
VERTEX
  5
33D
330
33C
100
AcDbEntity
  8
svg2
 62
     6
420
 16711935
370
     5
100
AcDbVertex
100
AcDb2dVertex
 10
1602.356807607075
 20
1133.281936325438
 30
0.0
  0
VERTEX
  5
33E
330
33C
100
AcDbEntity
  8
svg2
 62
     6
420
 16711935
370
     5
100
AcDbVertex
100
AcDb2dVertex
 10
1657.09571467967
 20
1133.281936325438
 30
0.0
  0
SEQEND
  5
33F
330
33C
100
AcDbEntity
  8
svg2
 62
     6
420
 16711935
370
     5
  0
POLYLINE
  5
340
330
314
100
AcDbEntity
  8
svg2
 62
     6
420
 16711935
370
     5
100
AcDb2dPolyline
 66
     1
 10
0.0
 20
0.0
 30
0.0
  0
VERTEX
  5
341
330
340
100
AcDbEntity
  8
svg2
 62
     6
420
 16711935
370
     5
100
AcDbVertex
100
AcDb2dVertex
 10
1447.739676861678
 20
1157.33801628837
 30
0.0
  0
VERTEX
  5
342
330
340
100
AcDbEntity
  8
svg2
 62
     6
420
 16711935
370
     5
100
AcDbVertex
100
AcDb2dVertex
 10
1536.602095030757
 20
1157.33801628837
 30
0.0
  0
SEQEND
  5
343
330
340
100
AcDbEntity
  8
svg2
 62
     6
420
 16711935
370
     5
  0
POLYLINE
  5
344
330
314
100
AcDbEntity
  8
svg2
 62
     6
420
 16711935
370
     5
100
AcDb2dPolyline
 66
     1
 10
0.0
 20
0.0
 30
0.0
  0
VERTEX
  5
345
330
344
100
AcDbEntity
  8
svg2
 62
     6
420
 16711935
370
     5
100
AcDbVertex
100
AcDb2dVertex
 10
1550.817764025276
 20
1157.33801628837
 30
0.0
  0
VERTEX
  5
346
330
344
100
AcDbEntity
  8
svg2
 62
     6
420
 16711935
370
     5
100
AcDbVertex
100
AcDb2dVertex
 10
1639.680366741533
 20
1157.33801628837
 30
0.0
  0
SEQEND
  5
347
330
344
100
AcDbEntity
  8
svg2
 62
     6
420
 16711935
370
     5
  0
POLYLINE
  5
348
330
314
100
AcDbEntity
  8
svg2
 62
     6
420
 16711935
370
     5
100
AcDb2dPolyline
 66
     1
 10
0.0
 20
0.0
 30
0.0
  0
VERTEX
  5
349
330
348
100
AcDbEntity
  8
svg2
 62
     6
420
 16711935
370
     5
100
AcDbVertex
100
AcDb2dVertex
 10
1430.324144376364
 20
1149.319207625362
 30
0.0
  0
VERTEX
  5
34A
330
348
100
AcDbEntity
  8
svg2
 62
     6
420
 16711935
370
     5
100
AcDbVertex
100
AcDb2dVertex
 10
1485.063235996135
 20
1149.319207625362
 30
0.0
  0
SEQEND
  5
34B
330
348
100
AcDbEntity
  8
svg2
 62
     6
420
 16711935
370
     5
  0
POLYLINE
  5
34C
330
314
100
AcDbEntity
  8
svg2
 62
     6
420
 16711935
370
     5
100
AcDb2dPolyline
 66
     1
 10
0.0
 20
0.0
 30
0.0
  0
VERTEX
  5
34D
330
34C
100
AcDbEntity
  8
svg2
 62
     6
420
 16711935
370
     5
100
AcDbVertex
100
AcDb2dVertex
 10
1499.278720443477
 20
1149.319207625362
 30
0.0
  0
VERTEX
  5
34E
330
34C
100
AcDbEntity
  8
svg2
 62
     6
420
 16711935
370
     5
100
AcDbVertex
100
AcDb2dVertex
 10
1588.141138612558
 20
1149.319207625362
 30
0.0
  0
SEQEND
  5
34F
330
34C
100
AcDbEntity
  8
svg2
 62
     6
420
 16711935
370
     5
  0
POLYLINE
  5
350
330
314
100
AcDbEntity
  8
svg2
 62
     6
420
 16711935
370
     5
100
AcDb2dPolyline
 66
     1
 10
0.0
 20
0.0
 30
0.0
  0
VERTEX
  5
351
330
350
100
AcDbEntity
  8
svg2
 62
     6
420
 16711935
370
     5
100
AcDbVertex
100
AcDb2dVertex
 10
1602.356807607075
 20
1149.319207625362
 30
0.0
  0
VERTEX
  5
352
330
350
100
AcDbEntity
  8
svg2
 62
     6
420
 16711935
370
     5
100
AcDbVertex
100
AcDb2dVertex
 10
1657.09571467967
 20
1149.319207625362
 30
0.0
  0
SEQEND
  5
353
330
350
100
AcDbEntity
  8
svg2
 62
     6
420
 16711935
370
     5
  0
POLYLINE
  5
354
330
314
100
AcDbEntity
  8
svg2
 62
     6
420
 16711935
370
     5
100
AcDb2dPolyline
 66
     1
 10
0.0
 20
0.0
 30
0.0
  0
VERTEX
  5
355
330
354
100
AcDbEntity
  8
svg2
 62
     6
420
 16711935
370
     5
100
AcDbVertex
100
AcDb2dVertex
 10
1447.739676861678
 20
1173.374941562201
 30
0.0
  0
VERTEX
  5
356
330
354
100
AcDbEntity
  8
svg2
 62
     6
420
 16711935
370
     5
100
AcDbVertex
100
AcDb2dVertex
 10
1536.602095030757
 20
1173.374941562201
 30
0.0
  0
SEQEND
  5
357
330
354
100
AcDbEntity
  8
svg2
 62
     6
420
 16711935
370
     5
  0
POLYLINE
  5
358
330
314
100
AcDbEntity
  8
svg2
 62
     6
420
 16711935
370
     5
100
AcDb2dPolyline
 66
     1
 10
0.0
 20
0.0
 30
0.0
  0
VERTEX
  5
359
330
358
100
AcDbEntity
  8
svg2
 62
     6
420
 16711935
370
     5
100
AcDbVertex
100
AcDb2dVertex
 10
1550.817764025276
 20
1173.374941562201
 30
0.0
  0
VERTEX
  5
35A
330
358
100
AcDbEntity
  8
svg2
 62
     6
420
 16711935
370
     5
100
AcDbVertex
100
AcDb2dVertex
 10
1639.680366741533
 20
1173.374941562201
 30
0.0
  0
SEQEND
  5
35B
330
358
100
AcDbEntity
  8
svg2
 62
     6
420
 16711935
370
     5
  0
POLYLINE
  5
35C
330
314
100
AcDbEntity
  8
svg2
 62
     6
420
 16711935
370
     5
100
AcDb2dPolyline
 66
     1
 10
0.0
 20
0.0
 30
0.0
  0
VERTEX
  5
35D
330
35C
100
AcDbEntity
  8
svg2
 62
     6
420
 16711935
370
     5
100
AcDbVertex
100
AcDb2dVertex
 10
1430.324144376364
 20
1165.356478925285
 30
0.0
  0
VERTEX
  5
35E
330
35C
100
AcDbEntity
  8
svg2
 62
     6
420
 16711935
370
     5
100
AcDbVertex
100
AcDb2dVertex
 10
1485.063235996135
 20
1165.356478925285
 30
0.0
  0
SEQEND
  5
35F
330
35C
100
AcDbEntity
  8
svg2
 62
     6
420
 16711935
370
     5
  0
POLYLINE
  5
360
330
314
100
AcDbEntity
  8
svg2
 62
     6
420
 16711935
370
     5
100
AcDb2dPolyline
 66
     1
 10
0.0
 20
0.0
 30
0.0
  0
VERTEX
  5
361
330
360
100
AcDbEntity
  8
svg2
 62
     6
420
 16711935
370
     5
100
AcDbVertex
100
AcDb2dVertex
 10
1499.278720443477
 20
1165.356478925285
 30
0.0
  0
VERTEX
  5
362
330
360
100
AcDbEntity
  8
svg2
 62
     6
420
 16711935
370
     5
100
AcDbVertex
100
AcDb2dVertex
 10
1588.141138612558
 20
1165.356478925285
 30
0.0
  0
SEQEND
  5
363
330
360
100
AcDbEntity
  8
svg2
 62
     6
420
 16711935
370
     5
  0
POLYLINE
  5
364
330
314
100
AcDbEntity
  8
svg2
 62
     6
420
 16711935
370
     5
100
AcDb2dPolyline
 66
     1
 10
0.0
 20
0.0
 30
0.0
  0
VERTEX
  5
365
330
364
100
AcDbEntity
  8
svg2
 62
     6
420
 16711935
370
     5
100
AcDbVertex
100
AcDb2dVertex
 10
1602.356807607075
 20
1165.356478925285
 30
0.0
  0
VERTEX
  5
366
330
364
100
AcDbEntity
  8
svg2
 62
     6
420
 16711935
370
     5
100
AcDbVertex
100
AcDb2dVertex
 10
1657.09571467967
 20
1165.356478925285
 30
0.0
  0
SEQEND
  5
367
330
364
100
AcDbEntity
  8
svg2
 62
     6
420
 16711935
370
     5
  0
POLYLINE
  5
368
330
314
100
AcDbEntity
  8
svg2
 62
     6
420
 16711935
370
     5
100
AcDb2dPolyline
 66
     1
 10
0.0
 20
0.0
 30
0.0
  0
VERTEX
  5
369
330
368
100
AcDbEntity
  8
svg2
 62
     6
420
 16711935
370
     5
100
AcDbVertex
100
AcDb2dVertex
 10
1447.739676861678
 20
1189.412558888216
 30
0.0
  0
VERTEX
  5
36A
330
368
100
AcDbEntity
  8
svg2
 62
     6
420
 16711935
370
     5
100
AcDbVertex
100
AcDb2dVertex
 10
1536.602095030757
 20
1189.412558888216
 30
0.0
  0
SEQEND
  5
36B
330
368
100
AcDbEntity
  8
svg2
 62
     6
420
 16711935
370
     5
  0
POLYLINE
  5
36C
330
314
100
AcDbEntity
  8
svg2
 62
     6
420
 16711935
370
     5
100
AcDb2dPolyline
 66
     1
 10
0.0
 20
0.0
 30
0.0
  0
VERTEX
  5
36D
330
36C
100
AcDbEntity
  8
svg2
 62
     6
420
 16711935
370
     5
100
AcDbVertex
100
AcDb2dVertex
 10
1550.817764025276
 20
1189.412558888216
 30
0.0
  0
VERTEX
  5
36E
330
36C
100
AcDbEntity
  8
svg2
 62
     6
420
 16711935
370
     5
100
AcDbVertex
100
AcDb2dVertex
 10
1639.680366741533
 20
1189.412558888216
 30
0.0
  0
SEQEND
  5
36F
330
36C
100
AcDbEntity
  8
svg2
 62
     6
420
 16711935
370
     5
  0
POLYLINE
  5
370
330
314
100
AcDbEntity
  8
svg2
 62
     6
420
 16711935
370
     5
100
AcDb2dPolyline
 66
     1
 10
0.0
 20
0.0
 30
0.0
  0
VERTEX
  5
371
330
370
100
AcDbEntity
  8
svg2
 62
     6
420
 16711935
370
     5
100
AcDbVertex
100
AcDb2dVertex
 10
1430.324144376364
 20
1181.393750225208
 30
0.0
  0
VERTEX
  5
372
330
370
100
AcDbEntity
  8
svg2
 62
     6
420
 16711935
370
     5
100
AcDbVertex
100
AcDb2dVertex
 10
1485.063235996135
 20
1181.393750225208
 30
0.0
  0
SEQEND
  5
373
330
370
100
AcDbEntity
  8
svg2
 62
     6
420
 16711935
370
     5
  0
POLYLINE
  5
374
330
314
100
AcDbEntity
  8
svg2
 62
     6
420
 16711935
370
     5
100
AcDb2dPolyline
 66
     1
 10
0.0
 20
0.0
 30
0.0
  0
VERTEX
  5
375
330
374
100
AcDbEntity
  8
svg2
 62
     6
420
 16711935
370
     5
100
AcDbVertex
100
AcDb2dVertex
 10
1499.278720443477
 20
1181.393750225208
 30
0.0
  0
VERTEX
  5
376
330
374
100
AcDbEntity
  8
svg2
 62
     6
420
 16711935
370
     5
100
AcDbVertex
100
AcDb2dVertex
 10
1588.141138612558
 20
1181.393750225208
 30
0.0
  0
SEQEND
  5
377
330
374
100
AcDbEntity
  8
svg2
 62
     6
420
 16711935
370
     5
  0
POLYLINE
  5
378
330
314
100
AcDbEntity
  8
svg2
 62
     6
420
 16711935
370
     5
100
AcDb2dPolyline
 66
     1
 10
0.0
 20
0.0
 30
0.0
  0
VERTEX
  5
379
330
378
100
AcDbEntity
  8
svg2
 62
     6
420
 16711935
370
     5
100
AcDbVertex
100
AcDb2dVertex
 10
1602.356807607075
 20
1181.393750225208
 30
0.0
  0
VERTEX
  5
37A
330
378
100
AcDbEntity
  8
svg2
 62
     6
420
 16711935
370
     5
100
AcDbVertex
100
AcDb2dVertex
 10
1657.09571467967
 20
1181.393750225208
 30
0.0
  0
SEQEND
  5
37B
330
378
100
AcDbEntity
  8
svg2
 62
     6
420
 16711935
370
     5
  0
POLYLINE
  5
37C
330
314
100
AcDbEntity
  8
svg2
 62
     6
420
 16711935
370
     5
100
AcDb2dPolyline
 66
     1
 10
0.0
 20
0.0
 30
0.0
  0
VERTEX
  5
37D
330
37C
100
AcDbEntity
  8
svg2
 62
     6
420
 16711935
370
     5
100
AcDbVertex
100
AcDb2dVertex
 10
1447.739676861678
 20
1205.449830188139
 30
0.0
  0
VERTEX
  5
37E
330
37C
100
AcDbEntity
  8
svg2
 62
     6
420
 16711935
370
     5
100
AcDbVertex
100
AcDb2dVertex
 10
1536.602095030757
 20
1205.449830188139
 30
0.0
  0
SEQEND
  5
37F
330
37C
100
AcDbEntity
  8
svg2
 62
     6
420
 16711935
370
     5
  0
POLYLINE
  5
380
330
314
100
AcDbEntity
  8
svg2
 62
     6
420
 16711935
370
     5
100
AcDb2dPolyline
 66
     1
 10
0.0
 20
0.0
 30
0.0
  0
VERTEX
  5
381
330
380
100
AcDbEntity
  8
svg2
 62
     6
420
 16711935
370
     5
100
AcDbVertex
100
AcDb2dVertex
 10
1550.817764025276
 20
1205.449830188139
 30
0.0
  0
VERTEX
  5
382
330
380
100
AcDbEntity
  8
svg2
 62
     6
420
 16711935
370
     5
100
AcDbVertex
100
AcDb2dVertex
 10
1639.680366741533
 20
1205.449830188139
 30
0.0
  0
SEQEND
  5
383
330
380
100
AcDbEntity
  8
svg2
 62
     6
420
 16711935
370
     5
  0
POLYLINE
  5
384
330
314
100
AcDbEntity
  8
svg2
 62
     6
420
 16711935
370
     5
100
AcDb2dPolyline
 66
     1
 10
0.0
 20
0.0
 30
0.0
  0
VERTEX
  5
385
330
384
100
AcDbEntity
  8
svg2
 62
     6
420
 16711935
370
     5
100
AcDbVertex
100
AcDb2dVertex
 10
1430.324144376364
 20
1197.431021525132
 30
0.0
  0
VERTEX
  5
386
330
384
100
AcDbEntity
  8
svg2
 62
     6
420
 16711935
370
     5
100
AcDbVertex
100
AcDb2dVertex
 10
1485.063235996135
 20
1197.431021525132
 30
0.0
  0
SEQEND
  5
387
330
384
100
AcDbEntity
  8
svg2
 62
     6
420
 16711935
370
     5
  0
POLYLINE
  5
388
330
314
100
AcDbEntity
  8
svg2
 62
     6
420
 16711935
370
     5
100
AcDb2dPolyline
 66
     1
 10
0.0
 20
0.0
 30
0.0
  0
VERTEX
  5
389
330
388
100
AcDbEntity
  8
svg2
 62
     6
420
 16711935
370
     5
100
AcDbVertex
100
AcDb2dVertex
 10
1499.278720443477
 20
1197.431021525132
 30
0.0
  0
VERTEX
  5
38A
330
388
100
AcDbEntity
  8
svg2
 62
     6
420
 16711935
370
     5
100
AcDbVertex
100
AcDb2dVertex
 10
1588.141138612558
 20
1197.431021525132
 30
0.0
  0
SEQEND
  5
38B
330
388
100
AcDbEntity
  8
svg2
 62
     6
420
 16711935
370
     5
  0
POLYLINE
  5
38C
330
314
100
AcDbEntity
  8
svg2
 62
     6
420
 16711935
370
     5
100
AcDb2dPolyline
 66
     1
 10
0.0
 20
0.0
 30
0.0
  0
VERTEX
  5
38D
330
38C
100
AcDbEntity
  8
svg2
 62
     6
420
 16711935
370
     5
100
AcDbVertex
100
AcDb2dVertex
 10
1602.356807607075
 20
1197.431021525132
 30
0.0
  0
VERTEX
  5
38E
330
38C
100
AcDbEntity
  8
svg2
 62
     6
420
 16711935
370
     5
100
AcDbVertex
100
AcDb2dVertex
 10
1657.09571467967
 20
1197.431021525132
 30
0.0
  0
SEQEND
  5
38F
330
38C
100
AcDbEntity
  8
svg2
 62
     6
420
 16711935
370
     5
  0
POLYLINE
  5
390
330
314
100
AcDbEntity
  8
svg2
 62
     6
420
 16711935
370
     5
100
AcDb2dPolyline
 66
     1
 10
0.0
 20
0.0
 30
0.0
  0
VERTEX
  5
391
330
390
100
AcDbEntity
  8
svg2
 62
     6
420
 16711935
370
     5
100
AcDbVertex
100
AcDb2dVertex
 10
1447.739676861678
 20
1221.487101488063
 30
0.0
  0
VERTEX
  5
392
330
390
100
AcDbEntity
  8
svg2
 62
     6
420
 16711935
370
     5
100
AcDbVertex
100
AcDb2dVertex
 10
1536.602095030757
 20
1221.487101488063
 30
0.0
  0
SEQEND
  5
393
330
390
100
AcDbEntity
  8
svg2
 62
     6
420
 16711935
370
     5
  0
POLYLINE
  5
394
330
314
100
AcDbEntity
  8
svg2
 62
     6
420
 16711935
370
     5
100
AcDb2dPolyline
 66
     1
 10
0.0
 20
0.0
 30
0.0
  0
VERTEX
  5
395
330
394
100
AcDbEntity
  8
svg2
 62
     6
420
 16711935
370
     5
100
AcDbVertex
100
AcDb2dVertex
 10
1550.817764025276
 20
1221.487101488063
 30
0.0
  0
VERTEX
  5
396
330
394
100
AcDbEntity
  8
svg2
 62
     6
420
 16711935
370
     5
100
AcDbVertex
100
AcDb2dVertex
 10
1639.680366741533
 20
1221.487101488063
 30
0.0
  0
SEQEND
  5
397
330
394
100
AcDbEntity
  8
svg2
 62
     6
420
 16711935
370
     5
  0
POLYLINE
  5
398
330
314
100
AcDbEntity
  8
svg2
 62
     6
420
 16711935
370
     5
100
AcDb2dPolyline
 66
     1
 10
0.0
 20
0.0
 30
0.0
  0
VERTEX
  5
399
330
398
100
AcDbEntity
  8
svg2
 62
     6
420
 16711935
370
     5
100
AcDbVertex
100
AcDb2dVertex
 10
1430.324144376364
 20
1213.468638851147
 30
0.0
  0
VERTEX
  5
39A
330
398
100
AcDbEntity
  8
svg2
 62
     6
420
 16711935
370
     5
100
AcDbVertex
100
AcDb2dVertex
 10
1485.063235996135
 20
1213.468638851147
 30
0.0
  0
SEQEND
  5
39B
330
398
100
AcDbEntity
  8
svg2
 62
     6
420
 16711935
370
     5
  0
POLYLINE
  5
39C
330
314
100
AcDbEntity
  8
svg2
 62
     6
420
 16711935
370
     5
100
AcDb2dPolyline
 66
     1
 10
0.0
 20
0.0
 30
0.0
  0
VERTEX
  5
39D
330
39C
100
AcDbEntity
  8
svg2
 62
     6
420
 16711935
370
     5
100
AcDbVertex
100
AcDb2dVertex
 10
1499.278720443477
 20
1213.468638851147
 30
0.0
  0
VERTEX
  5
39E
330
39C
100
AcDbEntity
  8
svg2
 62
     6
420
 16711935
370
     5
100
AcDbVertex
100
AcDb2dVertex
 10
1588.141138612558
 20
1213.468638851147
 30
0.0
  0
SEQEND
  5
39F
330
39C
100
AcDbEntity
  8
svg2
 62
     6
420
 16711935
370
     5
  0
POLYLINE
  5
3A0
330
314
100
AcDbEntity
  8
svg2
 62
     6
420
 16711935
370
     5
100
AcDb2dPolyline
 66
     1
 10
0.0
 20
0.0
 30
0.0
  0
VERTEX
  5
3A1
330
3A0
100
AcDbEntity
  8
svg2
 62
     6
420
 16711935
370
     5
100
AcDbVertex
100
AcDb2dVertex
 10
1602.356807607075
 20
1213.468638851147
 30
0.0
  0
VERTEX
  5
3A2
330
3A0
100
AcDbEntity
  8
svg2
 62
     6
420
 16711935
370
     5
100
AcDbVertex
100
AcDb2dVertex
 10
1657.09571467967
 20
1213.468638851147
 30
0.0
  0
SEQEND
  5
3A3
330
3A0
100
AcDbEntity
  8
svg2
 62
     6
420
 16711935
370
     5
  0
POLYLINE
  5
3A4
330
314
100
AcDbEntity
  8
svg2
 62
     6
420
 16711935
370
     5
100
AcDb2dPolyline
 66
     1
 10
0.0
 20
0.0
 30
0.0
  0
VERTEX
  5
3A5
330
3A4
100
AcDbEntity
  8
svg2
 62
     6
420
 16711935
370
     5
100
AcDbVertex
100
AcDb2dVertex
 10
1447.739676861678
 20
1237.524372787986
 30
0.0
  0
VERTEX
  5
3A6
330
3A4
100
AcDbEntity
  8
svg2
 62
     6
420
 16711935
370
     5
100
AcDbVertex
100
AcDb2dVertex
 10
1536.602095030757
 20
1237.524372787986
 30
0.0
  0
SEQEND
  5
3A7
330
3A4
100
AcDbEntity
  8
svg2
 62
     6
420
 16711935
370
     5
  0
POLYLINE
  5
3A8
330
314
100
AcDbEntity
  8
svg2
 62
     6
420
 16711935
370
     5
100
AcDb2dPolyline
 66
     1
 10
0.0
 20
0.0
 30
0.0
  0
VERTEX
  5
3A9
330
3A8
100
AcDbEntity
  8
svg2
 62
     6
420
 16711935
370
     5
100
AcDbVertex
100
AcDb2dVertex
 10
1550.817764025276
 20
1237.524372787986
 30
0.0
  0
VERTEX
  5
3AA
330
3A8
100
AcDbEntity
  8
svg2
 62
     6
420
 16711935
370
     5
100
AcDbVertex
100
AcDb2dVertex
 10
1639.680366741533
 20
1237.524372787986
 30
0.0
  0
SEQEND
  5
3AB
330
3A8
100
AcDbEntity
  8
svg2
 62
     6
420
 16711935
370
     5
  0
POLYLINE
  5
3AC
330
314
100
AcDbEntity
  8
svg2
 62
     6
420
 16711935
370
     5
100
AcDb2dPolyline
 66
     1
 10
0.0
 20
0.0
 30
0.0
  0
VERTEX
  5
3AD
330
3AC
100
AcDbEntity
  8
svg2
 62
     6
420
 16711935
370
     5
100
AcDbVertex
100
AcDb2dVertex
 10
1430.324144376364
 20
1229.505910151071
 30
0.0
  0
VERTEX
  5
3AE
330
3AC
100
AcDbEntity
  8
svg2
 62
     6
420
 16711935
370
     5
100
AcDbVertex
100
AcDb2dVertex
 10
1485.063235996135
 20
1229.505910151071
 30
0.0
  0
SEQEND
  5
3AF
330
3AC
100
AcDbEntity
  8
svg2
 62
     6
420
 16711935
370
     5
  0
POLYLINE
  5
3B0
330
314
100
AcDbEntity
  8
svg2
 62
     6
420
 16711935
370
     5
100
AcDb2dPolyline
 66
     1
 10
0.0
 20
0.0
 30
0.0
  0
VERTEX
  5
3B1
330
3B0
100
AcDbEntity
  8
svg2
 62
     6
420
 16711935
370
     5
100
AcDbVertex
100
AcDb2dVertex
 10
1499.278720443477
 20
1229.505910151071
 30
0.0
  0
VERTEX
  5
3B2
330
3B0
100
AcDbEntity
  8
svg2
 62
     6
420
 16711935
370
     5
100
AcDbVertex
100
AcDb2dVertex
 10
1588.141138612558
 20
1229.505910151071
 30
0.0
  0
SEQEND
  5
3B3
330
3B0
100
AcDbEntity
  8
svg2
 62
     6
420
 16711935
370
     5
  0
POLYLINE
  5
3B4
330
314
100
AcDbEntity
  8
svg2
 62
     6
420
 16711935
370
     5
100
AcDb2dPolyline
 66
     1
 10
0.0
 20
0.0
 30
0.0
  0
VERTEX
  5
3B5
330
3B4
100
AcDbEntity
  8
svg2
 62
     6
420
 16711935
370
     5
100
AcDbVertex
100
AcDb2dVertex
 10
1602.356807607075
 20
1229.505910151071
 30
0.0
  0
VERTEX
  5
3B6
330
3B4
100
AcDbEntity
  8
svg2
 62
     6
420
 16711935
370
     5
100
AcDbVertex
100
AcDb2dVertex
 10
1657.09571467967
 20
1229.505910151071
 30
0.0
  0
SEQEND
  5
3B7
330
3B4
100
AcDbEntity
  8
svg2
 62
     6
420
 16711935
370
     5
  0
POLYLINE
  5
3B8
330
314
100
AcDbEntity
  8
svg2
 62
     6
420
 16711935
370
     5
100
AcDb2dPolyline
 66
     1
 10
0.0
 20
0.0
 30
0.0
  0
VERTEX
  5
3B9
330
3B8
100
AcDbEntity
  8
svg2
 62
     6
420
 16711935
370
     5
100
AcDbVertex
100
AcDb2dVertex
 10
1447.739676861678
 20
1253.561644087909
 30
0.0
  0
VERTEX
  5
3BA
330
3B8
100
AcDbEntity
  8
svg2
 62
     6
420
 16711935
370
     5
100
AcDbVertex
100
AcDb2dVertex
 10
1536.602095030757
 20
1253.561644087909
 30
0.0
  0
SEQEND
  5
3BB
330
3B8
100
AcDbEntity
  8
svg2
 62
     6
420
 16711935
370
     5
  0
POLYLINE
  5
3BC
330
314
100
AcDbEntity
  8
svg2
 62
     6
420
 16711935
370
     5
100
AcDb2dPolyline
 66
     1
 10
0.0
 20
0.0
 30
0.0
  0
VERTEX
  5
3BD
330
3BC
100
AcDbEntity
  8
svg2
 62
     6
420
 16711935
370
     5
100
AcDbVertex
100
AcDb2dVertex
 10
1550.817764025276
 20
1253.561644087909
 30
0.0
  0
VERTEX
  5
3BE
330
3BC
100
AcDbEntity
  8
svg2
 62
     6
420
 16711935
370
     5
100
AcDbVertex
100
AcDb2dVertex
 10
1639.680366741533
 20
1253.561644087909
 30
0.0
  0
SEQEND
  5
3BF
330
3BC
100
AcDbEntity
  8
svg2
 62
     6
420
 16711935
370
     5
  0
POLYLINE
  5
3C0
330
314
100
AcDbEntity
  8
svg2
 62
     6
420
 16711935
370
     5
100
AcDb2dPolyline
 66
     1
 10
0.0
 20
0.0
 30
0.0
  0
VERTEX
  5
3C1
330
3C0
100
AcDbEntity
  8
svg2
 62
     6
420
 16711935
370
     5
100
AcDbVertex
100
AcDb2dVertex
 10
1430.324144376364
 20
1245.543181450994
 30
0.0
  0
VERTEX
  5
3C2
330
3C0
100
AcDbEntity
  8
svg2
 62
     6
420
 16711935
370
     5
100
AcDbVertex
100
AcDb2dVertex
 10
1485.063235996135
 20
1245.543181450994
 30
0.0
  0
SEQEND
  5
3C3
330
3C0
100
AcDbEntity
  8
svg2
 62
     6
420
 16711935
370
     5
  0
POLYLINE
  5
3C4
330
314
100
AcDbEntity
  8
svg2
 62
     6
420
 16711935
370
     5
100
AcDb2dPolyline
 66
     1
 10
0.0
 20
0.0
 30
0.0
  0
VERTEX
  5
3C5
330
3C4
100
AcDbEntity
  8
svg2
 62
     6
420
 16711935
370
     5
100
AcDbVertex
100
AcDb2dVertex
 10
1499.278720443477
 20
1245.543181450994
 30
0.0
  0
VERTEX
  5
3C6
330
3C4
100
AcDbEntity
  8
svg2
 62
     6
420
 16711935
370
     5
100
AcDbVertex
100
AcDb2dVertex
 10
1588.141138612558
 20
1245.543181450994
 30
0.0
  0
SEQEND
  5
3C7
330
3C4
100
AcDbEntity
  8
svg2
 62
     6
420
 16711935
370
     5
  0
POLYLINE
  5
3C8
330
314
100
AcDbEntity
  8
svg2
 62
     6
420
 16711935
370
     5
100
AcDb2dPolyline
 66
     1
 10
0.0
 20
0.0
 30
0.0
  0
VERTEX
  5
3C9
330
3C8
100
AcDbEntity
  8
svg2
 62
     6
420
 16711935
370
     5
100
AcDbVertex
100
AcDb2dVertex
 10
1602.356807607075
 20
1245.543181450994
 30
0.0
  0
VERTEX
  5
3CA
330
3C8
100
AcDbEntity
  8
svg2
 62
     6
420
 16711935
370
     5
100
AcDbVertex
100
AcDb2dVertex
 10
1657.09571467967
 20
1245.543181450994
 30
0.0
  0
SEQEND
  5
3CB
330
3C8
100
AcDbEntity
  8
svg2
 62
     6
420
 16711935
370
     5
  0
POLYLINE
  5
3CC
330
314
100
AcDbEntity
  8
svg2
 62
     6
420
 16711935
370
     5
100
AcDb2dPolyline
 66
     1
 10
0.0
 20
0.0
 30
0.0
  0
VERTEX
  5
3CD
330
3CC
100
AcDbEntity
  8
svg2
 62
     6
420
 16711935
370
     5
100
AcDbVertex
100
AcDb2dVertex
 10
1447.739676861678
 20
1269.598915387833
 30
0.0
  0
VERTEX
  5
3CE
330
3CC
100
AcDbEntity
  8
svg2
 62
     6
420
 16711935
370
     5
100
AcDbVertex
100
AcDb2dVertex
 10
1536.602095030757
 20
1269.598915387833
 30
0.0
  0
SEQEND
  5
3CF
330
3CC
100
AcDbEntity
  8
svg2
 62
     6
420
 16711935
370
     5
  0
POLYLINE
  5
3D0
330
314
100
AcDbEntity
  8
svg2
 62
     6
420
 16711935
370
     5
100
AcDb2dPolyline
 66
     1
 10
0.0
 20
0.0
 30
0.0
  0
VERTEX
  5
3D1
330
3D0
100
AcDbEntity
  8
svg2
 62
     6
420
 16711935
370
     5
100
AcDbVertex
100
AcDb2dVertex
 10
1550.817764025276
 20
1269.598915387833
 30
0.0
  0
VERTEX
  5
3D2
330
3D0
100
AcDbEntity
  8
svg2
 62
     6
420
 16711935
370
     5
100
AcDbVertex
100
AcDb2dVertex
 10
1639.680366741533
 20
1269.598915387833
 30
0.0
  0
SEQEND
  5
3D3
330
3D0
100
AcDbEntity
  8
svg2
 62
     6
420
 16711935
370
     5
  0
POLYLINE
  5
3D4
330
314
100
AcDbEntity
  8
svg2
 62
     6
420
 16711935
370
     5
100
AcDb2dPolyline
 66
     1
 10
0.0
 20
0.0
 30
0.0
  0
VERTEX
  5
3D5
330
3D4
100
AcDbEntity
  8
svg2
 62
     6
420
 16711935
370
     5
100
AcDbVertex
100
AcDb2dVertex
 10
1430.324144376364
 20
1261.580452750917
 30
0.0
  0
VERTEX
  5
3D6
330
3D4
100
AcDbEntity
  8
svg2
 62
     6
420
 16711935
370
     5
100
AcDbVertex
100
AcDb2dVertex
 10
1485.063235996135
 20
1261.580452750917
 30
0.0
  0
SEQEND
  5
3D7
330
3D4
100
AcDbEntity
  8
svg2
 62
     6
420
 16711935
370
     5
  0
POLYLINE
  5
3D8
330
314
100
AcDbEntity
  8
svg2
 62
     6
420
 16711935
370
     5
100
AcDb2dPolyline
 66
     1
 10
0.0
 20
0.0
 30
0.0
  0
VERTEX
  5
3D9
330
3D8
100
AcDbEntity
  8
svg2
 62
     6
420
 16711935
370
     5
100
AcDbVertex
100
AcDb2dVertex
 10
1499.278720443477
 20
1261.580452750917
 30
0.0
  0
VERTEX
  5
3DA
330
3D8
100
AcDbEntity
  8
svg2
 62
     6
420
 16711935
370
     5
100
AcDbVertex
100
AcDb2dVertex
 10
1588.141138612558
 20
1261.580452750917
 30
0.0
  0
SEQEND
  5
3DB
330
3D8
100
AcDbEntity
  8
svg2
 62
     6
420
 16711935
370
     5
  0
POLYLINE
  5
3DC
330
314
100
AcDbEntity
  8
svg2
 62
     6
420
 16711935
370
     5
100
AcDb2dPolyline
 66
     1
 10
0.0
 20
0.0
 30
0.0
  0
VERTEX
  5
3DD
330
3DC
100
AcDbEntity
  8
svg2
 62
     6
420
 16711935
370
     5
100
AcDbVertex
100
AcDb2dVertex
 10
1602.356807607075
 20
1261.580452750917
 30
0.0
  0
VERTEX
  5
3DE
330
3DC
100
AcDbEntity
  8
svg2
 62
     6
420
 16711935
370
     5
100
AcDbVertex
100
AcDb2dVertex
 10
1657.09571467967
 20
1261.580452750917
 30
0.0
  0
SEQEND
  5
3DF
330
3DC
100
AcDbEntity
  8
svg2
 62
     6
420
 16711935
370
     5
  0
POLYLINE
  5
3E0
330
314
100
AcDbEntity
  8
svg2
 62
     6
420
 16711935
370
     5
100
AcDb2dPolyline
 66
     1
 10
0.0
 20
0.0
 30
0.0
  0
VERTEX
  5
3E1
330
3E0
100
AcDbEntity
  8
svg2
 62
     6
420
 16711935
370
     5
100
AcDbVertex
100
AcDb2dVertex
 10
1447.739676861678
 20
1285.635840661664
 30
0.0
  0
VERTEX
  5
3E2
330
3E0
100
AcDbEntity
  8
svg2
 62
     6
420
 16711935
370
     5
100
AcDbVertex
100
AcDb2dVertex
 10
1536.602095030757
 20
1285.635840661664
 30
0.0
  0
SEQEND
  5
3E3
330
3E0
100
AcDbEntity
  8
svg2
 62
     6
420
 16711935
370
     5
  0
POLYLINE
  5
3E4
330
314
100
AcDbEntity
  8
svg2
 62
     6
420
 16711935
370
     5
100
AcDb2dPolyline
 66
     1
 10
0.0
 20
0.0
 30
0.0
  0
VERTEX
  5
3E5
330
3E4
100
AcDbEntity
  8
svg2
 62
     6
420
 16711935
370
     5
100
AcDbVertex
100
AcDb2dVertex
 10
1550.817764025276
 20
1285.635840661664
 30
0.0
  0
VERTEX
  5
3E6
330
3E4
100
AcDbEntity
  8
svg2
 62
     6
420
 16711935
370
     5
100
AcDbVertex
100
AcDb2dVertex
 10
1639.680366741533
 20
1285.635840661664
 30
0.0
  0
SEQEND
  5
3E7
330
3E4
100
AcDbEntity
  8
svg2
 62
     6
420
 16711935
370
     5
  0
POLYLINE
  5
3E8
330
314
100
AcDbEntity
  8
svg2
 62
     6
420
 16711935
370
     5
100
AcDb2dPolyline
 66
     1
 10
0.0
 20
0.0
 30
0.0
  0
VERTEX
  5
3E9
330
3E8
100
AcDbEntity
  8
svg2
 62
     6
420
 16711935
370
     5
100
AcDbVertex
100
AcDb2dVertex
 10
1430.324144376364
 20
1277.61772405084
 30
0.0
  0
VERTEX
  5
3EA
330
3E8
100
AcDbEntity
  8
svg2
 62
     6
420
 16711935
370
     5
100
AcDbVertex
100
AcDb2dVertex
 10
1485.063235996135
 20
1277.61772405084
 30
0.0
  0
SEQEND
  5
3EB
330
3E8
100
AcDbEntity
  8
svg2
 62
     6
420
 16711935
370
     5
  0
POLYLINE
  5
3EC
330
314
100
AcDbEntity
  8
svg2
 62
     6
420
 16711935
370
     5
100
AcDb2dPolyline
 66
     1
 10
0.0
 20
0.0
 30
0.0
  0
VERTEX
  5
3ED
330
3EC
100
AcDbEntity
  8
svg2
 62
     6
420
 16711935
370
     5
100
AcDbVertex
100
AcDb2dVertex
 10
1499.278720443477
 20
1277.61772405084
 30
0.0
  0
VERTEX
  5
3EE
330
3EC
100
AcDbEntity
  8
svg2
 62
     6
420
 16711935
370
     5
100
AcDbVertex
100
AcDb2dVertex
 10
1588.141138612558
 20
1277.61772405084
 30
0.0
  0
SEQEND
  5
3EF
330
3EC
100
AcDbEntity
  8
svg2
 62
     6
420
 16711935
370
     5
  0
POLYLINE
  5
3F0
330
314
100
AcDbEntity
  8
svg2
 62
     6
420
 16711935
370
     5
100
AcDb2dPolyline
 66
     1
 10
0.0
 20
0.0
 30
0.0
  0
VERTEX
  5
3F1
330
3F0
100
AcDbEntity
  8
svg2
 62
     6
420
 16711935
370
     5
100
AcDbVertex
100
AcDb2dVertex
 10
1602.356807607075
 20
1277.61772405084
 30
0.0
  0
VERTEX
  5
3F2
330
3F0
100
AcDbEntity
  8
svg2
 62
     6
420
 16711935
370
     5
100
AcDbVertex
100
AcDb2dVertex
 10
1657.09571467967
 20
1277.61772405084
 30
0.0
  0
SEQEND
  5
3F3
330
3F0
100
AcDbEntity
  8
svg2
 62
     6
420
 16711935
370
     5
  0
POLYLINE
  5
3F4
330
314
100
AcDbEntity
  8
svg2
 62
     6
420
 16711935
370
     5
100
AcDb2dPolyline
 66
     1
 10
0.0
 20
0.0
 30
0.0
  0
VERTEX
  5
3F5
330
3F4
100
AcDbEntity
  8
svg2
 62
     6
420
 16711935
370
     5
100
AcDbVertex
100
AcDb2dVertex
 10
1447.739676861678
 20
1301.673457987679
 30
0.0
  0
VERTEX
  5
3F6
330
3F4
100
AcDbEntity
  8
svg2
 62
     6
420
 16711935
370
     5
100
AcDbVertex
100
AcDb2dVertex
 10
1536.602095030757
 20
1301.673457987679
 30
0.0
  0
SEQEND
  5
3F7
330
3F4
100
AcDbEntity
  8
svg2
 62
     6
420
 16711935
370
     5
  0
POLYLINE
  5
3F8
330
314
100
AcDbEntity
  8
svg2
 62
     6
420
 16711935
370
     5
100
AcDb2dPolyline
 66
     1
 10
0.0
 20
0.0
 30
0.0
  0
VERTEX
  5
3F9
330
3F8
100
AcDbEntity
  8
svg2
 62
     6
420
 16711935
370
     5
100
AcDbVertex
100
AcDb2dVertex
 10
1550.817764025276
 20
1301.673457987679
 30
0.0
  0
VERTEX
  5
3FA
330
3F8
100
AcDbEntity
  8
svg2
 62
     6
420
 16711935
370
     5
100
AcDbVertex
100
AcDb2dVertex
 10
1639.680366741533
 20
1301.673457987679
 30
0.0
  0
SEQEND
  5
3FB
330
3F8
100
AcDbEntity
  8
svg2
 62
     6
420
 16711935
370
     5
  0
POLYLINE
  5
3FC
330
314
100
AcDbEntity
  8
svg2
 62
     6
420
 16711935
370
     5
100
AcDb2dPolyline
 66
     1
 10
0.0
 20
0.0
 30
0.0
  0
VERTEX
  5
3FD
330
3FC
100
AcDbEntity
  8
svg2
 62
     6
420
 16711935
370
     5
100
AcDbVertex
100
AcDb2dVertex
 10
1430.324144376364
 20
1293.654995350764
 30
0.0
  0
VERTEX
  5
3FE
330
3FC
100
AcDbEntity
  8
svg2
 62
     6
420
 16711935
370
     5
100
AcDbVertex
100
AcDb2dVertex
 10
1485.063235996135
 20
1293.654995350764
 30
0.0
  0
SEQEND
  5
3FF
330
3FC
100
AcDbEntity
  8
svg2
 62
     6
420
 16711935
370
     5
  0
POLYLINE
  5
400
330
314
100
AcDbEntity
  8
svg2
 62
     6
420
 16711935
370
     5
100
AcDb2dPolyline
 66
     1
 10
0.0
 20
0.0
 30
0.0
  0
VERTEX
  5
401
330
400
100
AcDbEntity
  8
svg2
 62
     6
420
 16711935
370
     5
100
AcDbVertex
100
AcDb2dVertex
 10
1499.278720443477
 20
1293.654995350764
 30
0.0
  0
VERTEX
  5
402
330
400
100
AcDbEntity
  8
svg2
 62
     6
420
 16711935
370
     5
100
AcDbVertex
100
AcDb2dVertex
 10
1588.141138612558
 20
1293.654995350764
 30
0.0
  0
SEQEND
  5
403
330
400
100
AcDbEntity
  8
svg2
 62
     6
420
 16711935
370
     5
  0
POLYLINE
  5
404
330
314
100
AcDbEntity
  8
svg2
 62
     6
420
 16711935
370
     5
100
AcDb2dPolyline
 66
     1
 10
0.0
 20
0.0
 30
0.0
  0
VERTEX
  5
405
330
404
100
AcDbEntity
  8
svg2
 62
     6
420
 16711935
370
     5
100
AcDbVertex
100
AcDb2dVertex
 10
1602.356807607075
 20
1293.654995350764
 30
0.0
  0
VERTEX
  5
406
330
404
100
AcDbEntity
  8
svg2
 62
     6
420
 16711935
370
     5
100
AcDbVertex
100
AcDb2dVertex
 10
1657.09571467967
 20
1293.654995350764
 30
0.0
  0
SEQEND
  5
407
330
404
100
AcDbEntity
  8
svg2
 62
     6
420
 16711935
370
     5
  0
POLYLINE
  5
408
330
314
100
AcDbEntity
  8
svg2
 62
     6
420
 16711935
370
     5
100
AcDb2dPolyline
 66
     1
 10
0.0
 20
0.0
 30
0.0
  0
VERTEX
  5
409
330
408
100
AcDbEntity
  8
svg2
 62
     6
420
 16711935
370
     5
100
AcDbVertex
100
AcDb2dVertex
 10
1430.324144376364
 20
1309.691920624595
 30
0.0
  0
VERTEX
  5
40A
330
408
100
AcDbEntity
  8
svg2
 62
     6
420
 16711935
370
     5
100
AcDbVertex
100
AcDb2dVertex
 10
1485.063235996135
 20
1309.691920624595
 30
0.0
  0
SEQEND
  5
40B
330
408
100
AcDbEntity
  8
svg2
 62
     6
420
 16711935
370
     5
  0
POLYLINE
  5
40C
330
314
100
AcDbEntity
  8
svg2
 62
     6
420
 16711935
370
     5
100
AcDb2dPolyline
 66
     1
 10
0.0
 20
0.0
 30
0.0
  0
VERTEX
  5
40D
330
40C
100
AcDbEntity
  8
svg2
 62
     6
420
 16711935
370
     5
100
AcDbVertex
100
AcDb2dVertex
 10
1499.278720443477
 20
1309.691920624595
 30
0.0
  0
VERTEX
  5
40E
330
40C
100
AcDbEntity
  8
svg2
 62
     6
420
 16711935
370
     5
100
AcDbVertex
100
AcDb2dVertex
 10
1588.141138612558
 20
1309.691920624595
 30
0.0
  0
SEQEND
  5
40F
330
40C
100
AcDbEntity
  8
svg2
 62
     6
420
 16711935
370
     5
  0
POLYLINE
  5
410
330
314
100
AcDbEntity
  8
svg2
 62
     6
420
 16711935
370
     5
100
AcDb2dPolyline
 66
     1
 10
0.0
 20
0.0
 30
0.0
  0
VERTEX
  5
411
330
410
100
AcDbEntity
  8
svg2
 62
     6
420
 16711935
370
     5
100
AcDbVertex
100
AcDb2dVertex
 10
1602.356807607075
 20
1309.691920624595
 30
0.0
  0
VERTEX
  5
412
330
410
100
AcDbEntity
  8
svg2
 62
     6
420
 16711935
370
     5
100
AcDbVertex
100
AcDb2dVertex
 10
1657.09571467967
 20
1309.691920624595
 30
0.0
  0
SEQEND
  5
413
330
410
100
AcDbEntity
  8
svg2
 62
     6
420
 16711935
370
     5
  0
ENDBLK
  5
317
330
314
100
AcDbEntity
  8
0
100
AcDbBlockEnd
  0
BLOCK
  5
443
330
441
100
AcDbEntity
  8
0
100
AcDbBlockBegin
  2
block 25
 70
     0
 10
0.0
 20
0.0
 30
0.0
  3
block 25
  1

  0
POLYLINE
  5
445
330
441
100
AcDbEntity
  8
svg2
 62
     1
420
 16711680
370
    20
100
AcDb2dPolyline
 66
     1
 10
0.0
 20
0.0
 30
0.0
  0
VERTEX
  5
446
330
445
100
AcDbEntity
  8
svg2
 62
     1
420
 16711680
370
    20
100
AcDbVertex
100
AcDb2dVertex
 10
1715.206128798909
 20
266.567026175253
 30
0.0
  0
VERTEX
  5
447
330
445
100
AcDbEntity
  8
svg2
 62
     1
420
 16711680
370
    20
100
AcDbVertex
100
AcDb2dVertex
 10
1715.206128798909
 20
258.3470033395715
 30
0.0
  0
VERTEX
  5
448
330
445
100
AcDbEntity
  8
svg2
 62
     1
420
 16711680
370
    20
100
AcDbVertex
100
AcDb2dVertex
 10
1757.726161047078
 20
258.3470033395715
 30
0.0
  0
VERTEX
  5
449
330
445
100
AcDbEntity
  8
svg2
 62
     1
420
 16711680
370
    20
100
AcDbVertex
100
AcDb2dVertex
 10
1757.726161047078
 20
266.567026175253
 30
0.0
  0
VERTEX
  5
44A
330
445
100
AcDbEntity
  8
svg2
 62
     1
420
 16711680
370
    20
100
AcDbVertex
100
AcDb2dVertex
 10
1715.206128798909
 20
266.567026175253
 30
0.0
  0
SEQEND
  5
44B
330
445
100
AcDbEntity
  8
svg2
 62
     1
420
 16711680
370
    20
  0
POLYLINE
  5
44C
330
441
100
AcDbEntity
  8
svg2
 62
     1
420
 16711680
370
    20
100
AcDb2dPolyline
 66
     1
 10
0.0
 20
0.0
 30
0.0
  0
VERTEX
  5
44D
330
44C
100
AcDbEntity
  8
svg2
 62
     1
420
 16711680
370
    20
100
AcDbVertex
100
AcDb2dVertex
 10
1800.246193295246
 20
266.567026175253
 30
0.0
  0
VERTEX
  5
44E
330
44C
100
AcDbEntity
  8
svg2
 62
     1
420
 16711680
370
    20
100
AcDbVertex
100
AcDb2dVertex
 10
1800.246193295246
 20
258.3470033395715
 30
0.0
  0
VERTEX
  5
44F
330
44C
100
AcDbEntity
  8
svg2
 62
     1
420
 16711680
370
    20
100
AcDbVertex
100
AcDb2dVertex
 10
1842.764668426
 20
258.3470033395715
 30
0.0
  0
VERTEX
  5
450
330
44C
100
AcDbEntity
  8
svg2
 62
     1
420
 16711680
370
    20
100
AcDbVertex
100
AcDb2dVertex
 10
1842.764668426
 20
266.567026175253
 30
0.0
  0
VERTEX
  5
451
330
44C
100
AcDbEntity
  8
svg2
 62
     1
420
 16711680
370
    20
100
AcDbVertex
100
AcDb2dVertex
 10
1800.246193295246
 20
266.567026175253
 30
0.0
  0
SEQEND
  5
452
330
44C
100
AcDbEntity
  8
svg2
 62
     1
420
 16711680
370
    20
  0
ENDBLK
  5
444
330
441
100
AcDbEntity
  8
0
100
AcDbBlockEnd
  0
BLOCK
  5
455
330
453
100
AcDbEntity
  8
0
100
AcDbBlockBegin
  2
block 26
 70
     0
 10
0.0
 20
0.0
 30
0.0
  3
block 26
  1

  0
ENDBLK
  5
456
330
453
100
AcDbEntity
  8
0
100
AcDbBlockEnd
  0
BLOCK
  5
461
330
45F
100
AcDbEntity
  8
0
100
AcDbBlockBegin
  2
block 27
 70
     0
 10
0.0
 20
0.0
 30
0.0
  3
block 27
  1

  0
POLYLINE
  5
463
330
45F
100
AcDbEntity
  8
svg2
 62
     6
420
 16711935
370
     5
100
AcDb2dPolyline
 66
     1
 10
0.0
 20
0.0
 30
0.0
  0
VERTEX
  5
464
330
463
100
AcDbEntity
  8
svg2
 62
     6
420
 16711935
370
     5
100
AcDbVertex
100
AcDb2dVertex
 10
1675.817562910441
 20
1125.263473688523
 30
0.0
  0
VERTEX
  5
465
330
463
100
AcDbEntity
  8
svg2
 62
     6
420
 16711935
370
     5
100
AcDbVertex
100
AcDb2dVertex
 10
1771.344698442632
 20
1125.263473688523
 30
0.0
  0
SEQEND
  5
466
330
463
100
AcDbEntity
  8
svg2
 62
     6
420
 16711935
370
     5
  0
POLYLINE
  5
467
330
45F
100
AcDbEntity
  8
svg2
 62
     6
420
 16711935
370
     5
100
AcDb2dPolyline
 66
     1
 10
0.0
 20
0.0
 30
0.0
  0
VERTEX
  5
468
330
467
100
AcDbEntity
  8
svg2
 62
     6
420
 16711935
370
     5
100
AcDbVertex
100
AcDb2dVertex
 10
1786.626548370868
 20
1125.263473688523
 30
0.0
  0
VERTEX
  5
469
330
467
100
AcDbEntity
  8
svg2
 62
     6
420
 16711935
370
     5
100
AcDbVertex
100
AcDb2dVertex
 10
1882.15388229135
 20
1125.263473688523
 30
0.0
  0
SEQEND
  5
46A
330
467
100
AcDbEntity
  8
svg2
 62
     6
420
 16711935
370
     5
  0
POLYLINE
  5
46B
330
45F
100
AcDbEntity
  8
svg2
 62
     6
420
 16711935
370
     5
100
AcDb2dPolyline
 66
     1
 10
0.0
 20
0.0
 30
0.0
  0
VERTEX
  5
46C
330
46B
100
AcDbEntity
  8
svg2
 62
     6
420
 16711935
370
     5
100
AcDbVertex
100
AcDb2dVertex
 10
1657.095858433253
 20
1117.244665025515
 30
0.0
  0
VERTEX
  5
46D
330
46B
100
AcDbEntity
  8
svg2
 62
     6
420
 16711935
370
     5
100
AcDbVertex
100
AcDb2dVertex
 10
1715.940404100707
 20
1117.244665025515
 30
0.0
  0
SEQEND
  5
46E
330
46B
100
AcDbEntity
  8
svg2
 62
     6
420
 16711935
370
     5
  0
POLYLINE
  5
46F
330
45F
100
AcDbEntity
  8
svg2
 62
     6
420
 16711935
370
     5
100
AcDb2dPolyline
 66
     1
 10
0.0
 20
0.0
 30
0.0
  0
VERTEX
  5
470
330
46F
100
AcDbEntity
  8
svg2
 62
     6
420
 16711935
370
     5
100
AcDbVertex
100
AcDb2dVertex
 10
1731.222055640656
 20
1117.244665025515
 30
0.0
  0
VERTEX
  5
471
330
46F
100
AcDbEntity
  8
svg2
 62
     6
420
 16711935
370
     5
100
AcDbVertex
100
AcDb2dVertex
 10
1826.749191172847
 20
1117.244665025515
 30
0.0
  0
SEQEND
  5
472
330
46F
100
AcDbEntity
  8
svg2
 62
     6
420
 16711935
370
     5
  0
POLYLINE
  5
473
330
45F
100
AcDbEntity
  8
svg2
 62
     6
420
 16711935
370
     5
100
AcDb2dPolyline
 66
     1
 10
0.0
 20
0.0
 30
0.0
  0
VERTEX
  5
474
330
473
100
AcDbEntity
  8
svg2
 62
     6
420
 16711935
370
     5
100
AcDbVertex
100
AcDb2dVertex
 10
1842.031041101083
 20
1117.244665025515
 30
0.0
  0
VERTEX
  5
475
330
473
100
AcDbEntity
  8
svg2
 62
     6
420
 16711935
370
     5
100
AcDbVertex
100
AcDb2dVertex
 10
1900.875388380249
 20
1117.244665025515
 30
0.0
  0
SEQEND
  5
476
330
473
100
AcDbEntity
  8
svg2
 62
     6
420
 16711935
370
     5
  0
POLYLINE
  5
477
330
45F
100
AcDbEntity
  8
svg2
 62
     6
420
 16711935
370
     5
100
AcDb2dPolyline
 66
     1
 10
0.0
 20
0.0
 30
0.0
  0
VERTEX
  5
478
330
477
100
AcDbEntity
  8
svg2
 62
     6
420
 16711935
370
     5
100
AcDbVertex
100
AcDb2dVertex
 10
1675.817562910441
 20
1141.300744988446
 30
0.0
  0
VERTEX
  5
479
330
477
100
AcDbEntity
  8
svg2
 62
     6
420
 16711935
370
     5
100
AcDbVertex
100
AcDb2dVertex
 10
1771.344698442632
 20
1141.300744988446
 30
0.0
  0
SEQEND
  5
47A
330
477
100
AcDbEntity
  8
svg2
 62
     6
420
 16711935
370
     5
  0
POLYLINE
  5
47B
330
45F
100
AcDbEntity
  8
svg2
 62
     6
420
 16711935
370
     5
100
AcDb2dPolyline
 66
     1
 10
0.0
 20
0.0
 30
0.0
  0
VERTEX
  5
47C
330
47B
100
AcDbEntity
  8
svg2
 62
     6
420
 16711935
370
     5
100
AcDbVertex
100
AcDb2dVertex
 10
1786.626548370868
 20
1141.300744988446
 30
0.0
  0
VERTEX
  5
47D
330
47B
100
AcDbEntity
  8
svg2
 62
     6
420
 16711935
370
     5
100
AcDbVertex
100
AcDb2dVertex
 10
1882.15388229135
 20
1141.300744988446
 30
0.0
  0
SEQEND
  5
47E
330
47B
100
AcDbEntity
  8
svg2
 62
     6
420
 16711935
370
     5
  0
POLYLINE
  5
47F
330
45F
100
AcDbEntity
  8
svg2
 62
     6
420
 16711935
370
     5
100
AcDb2dPolyline
 66
     1
 10
0.0
 20
0.0
 30
0.0
  0
VERTEX
  5
480
330
47F
100
AcDbEntity
  8
svg2
 62
     6
420
 16711935
370
     5
100
AcDbVertex
100
AcDb2dVertex
 10
1657.765220521502
 20
1133.281936325438
 30
0.0
  0
VERTEX
  5
481
330
47F
100
AcDbEntity
  8
svg2
 62
     6
420
 16711935
370
     5
100
AcDbVertex
100
AcDb2dVertex
 10
1715.940205712419
 20
1133.281936325438
 30
0.0
  0
SEQEND
  5
482
330
47F
100
AcDbEntity
  8
svg2
 62
     6
420
 16711935
370
     5
  0
POLYLINE
  5
483
330
45F
100
AcDbEntity
  8
svg2
 62
     6
420
 16711935
370
     5
100
AcDb2dPolyline
 66
     1
 10
0.0
 20
0.0
 30
0.0
  0
VERTEX
  5
484
330
483
100
AcDbEntity
  8
svg2
 62
     6
420
 16711935
370
     5
100
AcDbVertex
100
AcDb2dVertex
 10
1731.222055640656
 20
1133.281936325438
 30
0.0
  0
VERTEX
  5
485
330
483
100
AcDbEntity
  8
svg2
 62
     6
420
 16711935
370
     5
100
AcDbVertex
100
AcDb2dVertex
 10
1826.749191172847
 20
1133.281936325438
 30
0.0
  0
SEQEND
  5
486
330
483
100
AcDbEntity
  8
svg2
 62
     6
420
 16711935
370
     5
  0
POLYLINE
  5
487
330
45F
100
AcDbEntity
  8
svg2
 62
     6
420
 16711935
370
     5
100
AcDb2dPolyline
 66
     1
 10
0.0
 20
0.0
 30
0.0
  0
VERTEX
  5
488
330
487
100
AcDbEntity
  8
svg2
 62
     6
420
 16711935
370
     5
100
AcDbVertex
100
AcDb2dVertex
 10
1682.188009269594
 20
1157.33801628837
 30
0.0
  0
VERTEX
  5
489
330
487
100
AcDbEntity
  8
svg2
 62
     6
420
 16711935
370
     5
100
AcDbVertex
100
AcDb2dVertex
 10
1771.344698442632
 20
1157.33801628837
 30
0.0
  0
SEQEND
  5
48A
330
487
100
AcDbEntity
  8
svg2
 62
     6
420
 16711935
370
     5
  0
POLYLINE
  5
48B
330
45F
100
AcDbEntity
  8
svg2
 62
     6
420
 16711935
370
     5
100
AcDb2dPolyline
 66
     1
 10
0.0
 20
0.0
 30
0.0
  0
VERTEX
  5
48C
330
48B
100
AcDbEntity
  8
svg2
 62
     6
420
 16711935
370
     5
100
AcDbVertex
100
AcDb2dVertex
 10
1786.626548370868
 20
1157.33801628837
 30
0.0
  0
VERTEX
  5
48D
330
48B
100
AcDbEntity
  8
svg2
 62
     6
420
 16711935
370
     5
100
AcDbVertex
100
AcDb2dVertex
 10
1875.783435932197
 20
1157.33801628837
 30
0.0
  0
SEQEND
  5
48E
330
48B
100
AcDbEntity
  8
svg2
 62
     6
420
 16711935
370
     5
  0
POLYLINE
  5
48F
330
45F
100
AcDbEntity
  8
svg2
 62
     6
420
 16711935
370
     5
100
AcDb2dPolyline
 66
     1
 10
0.0
 20
0.0
 30
0.0
  0
VERTEX
  5
490
330
48F
100
AcDbEntity
  8
svg2
 62
     6
420
 16711935
370
     5
100
AcDbVertex
100
AcDb2dVertex
 10
1659.828855507269
 20
1149.319207625362
 30
0.0
  0
VERTEX
  5
491
330
48F
100
AcDbEntity
  8
svg2
 62
     6
420
 16711935
370
     5
100
AcDbVertex
100
AcDb2dVertex
 10
1715.940205712419
 20
1149.319207625362
 30
0.0
  0
SEQEND
  5
492
330
48F
100
AcDbEntity
  8
svg2
 62
     6
420
 16711935
370
     5
  0
POLYLINE
  5
493
330
45F
100
AcDbEntity
  8
svg2
 62
     6
420
 16711935
370
     5
100
AcDb2dPolyline
 66
     1
 10
0.0
 20
0.0
 30
0.0
  0
VERTEX
  5
494
330
493
100
AcDbEntity
  8
svg2
 62
     6
420
 16711935
370
     5
100
AcDbVertex
100
AcDb2dVertex
 10
1731.222055640656
 20
1149.319207625362
 30
0.0
  0
VERTEX
  5
495
330
493
100
AcDbEntity
  8
svg2
 62
     6
420
 16711935
370
     5
100
AcDbVertex
100
AcDb2dVertex
 10
1826.749191172847
 20
1149.319207625362
 30
0.0
  0
SEQEND
  5
496
330
493
100
AcDbEntity
  8
svg2
 62
     6
420
 16711935
370
     5
  0
POLYLINE
  5
497
330
45F
100
AcDbEntity
  8
svg2
 62
     6
420
 16711935
370
     5
100
AcDb2dPolyline
 66
     1
 10
0.0
 20
0.0
 30
0.0
  0
VERTEX
  5
498
330
497
100
AcDbEntity
  8
svg2
 62
     6
420
 16711935
370
     5
100
AcDbVertex
100
AcDb2dVertex
 10
1688.558257240458
 20
1173.374941562201
 30
0.0
  0
VERTEX
  5
499
330
497
100
AcDbEntity
  8
svg2
 62
     6
420
 16711935
370
     5
100
AcDbVertex
100
AcDb2dVertex
 10
1771.344698442632
 20
1173.374941562201
 30
0.0
  0
SEQEND
  5
49A
330
497
100
AcDbEntity
  8
svg2
 62
     6
420
 16711935
370
     5
  0
POLYLINE
  5
49B
330
45F
100
AcDbEntity
  8
svg2
 62
     6
420
 16711935
370
     5
100
AcDb2dPolyline
 66
     1
 10
0.0
 20
0.0
 30
0.0
  0
VERTEX
  5
49C
330
49B
100
AcDbEntity
  8
svg2
 62
     6
420
 16711935
370
     5
100
AcDbVertex
100
AcDb2dVertex
 10
1786.626548370868
 20
1173.374941562201
 30
0.0
  0
VERTEX
  5
49D
330
49B
100
AcDbEntity
  8
svg2
 62
     6
420
 16711935
370
     5
100
AcDbVertex
100
AcDb2dVertex
 10
1869.413187961332
 20
1173.374941562201
 30
0.0
  0
SEQEND
  5
49E
330
49B
100
AcDbEntity
  8
svg2
 62
     6
420
 16711935
370
     5
  0
POLYLINE
  5
49F
330
45F
100
AcDbEntity
  8
svg2
 62
     6
420
 16711935
370
     5
100
AcDb2dPolyline
 66
     1
 10
0.0
 20
0.0
 30
0.0
  0
VERTEX
  5
4A0
330
49F
100
AcDbEntity
  8
svg2
 62
     6
420
 16711935
370
     5
100
AcDbVertex
100
AcDb2dVertex
 10
1663.276050422925
 20
1165.356478925285
 30
0.0
  0
VERTEX
  5
4A1
330
49F
100
AcDbEntity
  8
svg2
 62
     6
420
 16711935
370
     5
100
AcDbVertex
100
AcDb2dVertex
 10
1715.940205712419
 20
1165.356478925285
 30
0.0
  0
SEQEND
  5
4A2
330
49F
100
AcDbEntity
  8
svg2
 62
     6
420
 16711935
370
     5
  0
POLYLINE
  5
4A3
330
45F
100
AcDbEntity
  8
svg2
 62
     6
420
 16711935
370
     5
100
AcDb2dPolyline
 66
     1
 10
0.0
 20
0.0
 30
0.0
  0
VERTEX
  5
4A4
330
4A3
100
AcDbEntity
  8
svg2
 62
     6
420
 16711935
370
     5
100
AcDbVertex
100
AcDb2dVertex
 10
1731.222055640656
 20
1165.356478925285
 30
0.0
  0
VERTEX
  5
4A5
330
4A3
100
AcDbEntity
  8
svg2
 62
     6
420
 16711935
370
     5
100
AcDbVertex
100
AcDb2dVertex
 10
1826.749191172847
 20
1165.356478925285
 30
0.0
  0
SEQEND
  5
4A6
330
4A3
100
AcDbEntity
  8
svg2
 62
     6
420
 16711935
370
     5
  0
POLYLINE
  5
4A7
330
45F
100
AcDbEntity
  8
svg2
 62
     6
420
 16711935
370
     5
100
AcDb2dPolyline
 66
     1
 10
0.0
 20
0.0
 30
0.0
  0
VERTEX
  5
4A8
330
4A7
100
AcDbEntity
  8
svg2
 62
     6
420
 16711935
370
     5
100
AcDbVertex
100
AcDb2dVertex
 10
1667.966147971327
 20
1181.393750225208
 30
0.0
  0
VERTEX
  5
4A9
330
4A7
100
AcDbEntity
  8
svg2
 62
     6
420
 16711935
370
     5
100
AcDbVertex
100
AcDb2dVertex
 10
1715.940205712419
 20
1181.393750225208
 30
0.0
  0
SEQEND
  5
4AA
330
4A7
100
AcDbEntity
  8
svg2
 62
     6
420
 16711935
370
     5
  0
POLYLINE
  5
4AB
330
45F
100
AcDbEntity
  8
svg2
 62
     6
420
 16711935
370
     5
100
AcDb2dPolyline
 66
     1
 10
0.0
 20
0.0
 30
0.0
  0
VERTEX
  5
4AC
330
4AB
100
AcDbEntity
  8
svg2
 62
     6
420
 16711935
370
     5
100
AcDbVertex
100
AcDb2dVertex
 10
1731.222055640656
 20
1181.393750225208
 30
0.0
  0
VERTEX
  5
4AD
330
4AB
100
AcDbEntity
  8
svg2
 62
     6
420
 16711935
370
     5
100
AcDbVertex
100
AcDb2dVertex
 10
1826.749191172847
 20
1181.393750225208
 30
0.0
  0
SEQEND
  5
4AE
330
4AB
100
AcDbEntity
  8
svg2
 62
     6
420
 16711935
370
     5
  0
POLYLINE
  5
4AF
330
45F
100
AcDbEntity
  8
svg2
 62
     6
420
 16711935
370
     5
100
AcDb2dPolyline
 66
     1
 10
0.0
 20
0.0
 30
0.0
  0
VERTEX
  5
4B0
330
4AF
100
AcDbEntity
  8
svg2
 62
     6
420
 16711935
370
     5
100
AcDbVertex
100
AcDb2dVertex
 10
1900.159008267425
 20
1133.281936325438
 30
0.0
  0
VERTEX
  5
4B1
330
4AF
100
AcDbEntity
  8
svg2
 62
     6
420
 16711935
370
     5
100
AcDbVertex
100
AcDb2dVertex
 10
1842.030842712793
 20
1133.281936325438
 30
0.0
  0
SEQEND
  5
4B2
330
4AF
100
AcDbEntity
  8
svg2
 62
     6
420
 16711935
370
     5
  0
POLYLINE
  5
4B3
330
45F
100
AcDbEntity
  8
svg2
 62
     6
420
 16711935
370
     5
100
AcDb2dPolyline
 66
     1
 10
0.0
 20
0.0
 30
0.0
  0
VERTEX
  5
4B4
330
4B3
100
AcDbEntity
  8
svg2
 62
     6
420
 16711935
370
     5
100
AcDbVertex
100
AcDb2dVertex
 10
1898.095373281658
 20
1149.319207625362
 30
0.0
  0
VERTEX
  5
4B5
330
4B3
100
AcDbEntity
  8
svg2
 62
     6
420
 16711935
370
     5
100
AcDbVertex
100
AcDb2dVertex
 10
1842.031041101083
 20
1149.319207625362
 30
0.0
  0
SEQEND
  5
4B6
330
4B3
100
AcDbEntity
  8
svg2
 62
     6
420
 16711935
370
     5
  0
POLYLINE
  5
4B7
330
45F
100
AcDbEntity
  8
svg2
 62
     6
420
 16711935
370
     5
100
AcDb2dPolyline
 66
     1
 10
0.0
 20
0.0
 30
0.0
  0
VERTEX
  5
4B8
330
4B7
100
AcDbEntity
  8
svg2
 62
     6
420
 16711935
370
     5
100
AcDbVertex
100
AcDb2dVertex
 10
1894.695196390576
 20
1165.356478925285
 30
0.0
  0
VERTEX
  5
4B9
330
4B7
100
AcDbEntity
  8
svg2
 62
     6
420
 16711935
370
     5
100
AcDbVertex
100
AcDb2dVertex
 10
1842.031041101083
 20
1165.356478925285
 30
0.0
  0
SEQEND
  5
4BA
330
4B7
100
AcDbEntity
  8
svg2
 62
     6
420
 16711935
370
     5
  0
POLYLINE
  5
4BB
330
45F
100
AcDbEntity
  8
svg2
 62
     6
420
 16711935
370
     5
100
AcDb2dPolyline
 66
     1
 10
0.0
 20
0.0
 30
0.0
  0
VERTEX
  5
4BC
330
4BB
100
AcDbEntity
  8
svg2
 62
     6
420
 16711935
370
     5
100
AcDbVertex
100
AcDb2dVertex
 10
1890.005098842174
 20
1181.393750225208
 30
0.0
  0
VERTEX
  5
4BD
330
4BB
100
AcDbEntity
  8
svg2
 62
     6
420
 16711935
370
     5
100
AcDbVertex
100
AcDb2dVertex
 10
1842.031041101083
 20
1181.393750225208
 30
0.0
  0
SEQEND
  5
4BE
330
4BB
100
AcDbEntity
  8
svg2
 62
     6
420
 16711935
370
     5
  0
ENDBLK
  5
462
330
45F
100
AcDbEntity
  8
0
100
AcDbBlockEnd
  0
ENDSEC
  0
SECTION
  2
ENTITIES
  0
INSERT
  5
42
330
1F
100
AcDbEntity
  8
svg2
100
AcDbBlockReference
  2
block 2
 10
0.0
 20
0.0
 30
0.0
  0
INSERT
  5
46
330
1F
100
AcDbEntity
  8
svg2
100
AcDbBlockReference
  2
block 3
 10
0.0
 20
0.0
 30
0.0
  0
ENDSEC
  0
SECTION
  2
OBJECTS
  0
DICTIONARY
  5
C
330
0
100
AcDbDictionary
281
     1
  3
ACAD_GROUP
350
D
  3
ACAD_LAYOUT
350
1A
  3
ACAD_MATERIAL
350
3B
  3
ACAD_MLEADERSTYLE
350
4C8
  3
ACAD_MLINESTYLE
350
17
  3
ACAD_PLOTSETTINGS
350
19
  3
ACAD_PLOTSTYLENAME
350
E
  3
ACAD_TABLESTYLE
350
4C7
  3
ACAD_VISUALSTYLE
350
2A
  0
SUN
  5
3F
330
29
100
AcDbSun
 90
        1
290
     0
 63
     7
421
 16777215
 40
1.0
291
     1
 91
  2455826
 92
 54000000
292
     0
 70
     2
 71
   256
280
     1
  0
DICTIONARY
  5
D
102
{ACAD_REACTORS
330
C
102
}
330
C
100
AcDbDictionary
281
     1
  0
DICTIONARY
  5
1A
102
{ACAD_REACTORS
330
C
102
}
330
C
100
AcDbDictionary
281
     1
  3
Layout1
350
1E
  3
Layout2
350
26
  3
Model
350
22
  0
DICTIONARY
  5
3B
102
{ACAD_REACTORS
330
C
102
}
330
C
100
AcDbDictionary
281
     1
  3
ByBlock
350
3D
  3
ByLayer
350
3C
  3
Global
350
3E
  0
DICTIONARY
  5
4C8
102
{ACAD_REACTORS
330
C
102
}
330
C
100
AcDbDictionary
281
     1
  0
DICTIONARY
  5
17
102
{ACAD_REACTORS
330
C
102
}
330
C
100
AcDbDictionary
281
     1
  3
Standard
350
18
  0
DICTIONARY
  5
19
102
{ACAD_REACTORS
330
C
102
}
330
C
100
AcDbDictionary
281
     1
  0
ACDBDICTIONARYWDFLT
  5
E
102
{ACAD_REACTORS
330
C
102
}
330
C
100
AcDbDictionary
281
     1
  3
Normal
350
F
100
AcDbDictionaryWithDefault
340
F
  0
DICTIONARY
  5
4C7
102
{ACAD_REACTORS
330
C
102
}
330
C
100
AcDbDictionary
281
     1
  0
DICTIONARY
  5
2A
102
{ACAD_REACTORS
330
C
102
}
330
C
100
AcDbDictionary
281
     1
  3
2dWireframe
350
2F
  3
3D Hidden
350
31
  3
3dWireframe
350
30
  3
Basic
350
32
  3
Brighten
350
36
  3
ColorChange
350
3A
  3
Conceptual
350
34
  3
Dim
350
35
  3
Facepattern
350
39
  3
Flat
350
2B
  3
FlatWithEdges
350
2C
  3
Gouraud
350
2D
  3
GouraudWithEdges
350
2E
  3
Linepattern
350
38
  3
Realistic
350
33
  3
Thicken
350
37
  0
LAYOUT
  5
1E
102
{ACAD_REACTORS
330
1A
102
}
330
1A
100
AcDbPlotSettings
  1

  2
none_device
  4

  6

 40
0.0
 41
0.0
 42
0.0
 43
0.0
 44
0.0
 45
0.0
 46
0.0
 47
0.0
 48
0.0
 49
0.0
140
0.0
141
0.0
142
1.0
143
1.0
 70
   688
 72
     0
 73
     0
 74
     5
  7

 75
    16
 76
     0
 77
     2
 78
   300
147
1.0
148
0.0
149
0.0
100
AcDbLayout
  1
Layout1
 70
     1
 71
     1
 10
0.0
 20
0.0
 11
12.0
 21
9.0
 12
0.0
 22
0.0
 32
0.0
 14
1.000000000000000E+20
 24
1.000000000000000E+20
 34
1.000000000000000E+20
 15
-1.000000000000000E+20
 25
-1.000000000000000E+20
 35
-1.000000000000000E+20
146
0.0
 13
0.0
 23
0.0
 33
0.0
 16
1.0
 26
0.0
 36
0.0
 17
0.0
 27
1.0
 37
0.0
 76
     0
330
1B
  0
LAYOUT
  5
26
102
{ACAD_REACTORS
330
1A
102
}
330
1A
100
AcDbPlotSettings
  1

  2
none_device
  4

  6

 40
0.0
 41
0.0
 42
0.0
 43
0.0
 44
0.0
 45
0.0
 46
0.0
 47
0.0
 48
0.0
 49
0.0
140
0.0
141
0.0
142
1.0
143
1.0
 70
   688
 72
     0
 73
     0
 74
     5
  7

 75
    16
 76
     0
 77
     2
 78
   300
147
1.0
148
0.0
149
0.0
100
AcDbLayout
  1
Layout2
 70
     1
 71
     2
 10
0.0
 20
0.0
 11
0.0
 21
0.0
 12
0.0
 22
0.0
 32
0.0
 14
0.0
 24
0.0
 34
0.0
 15
0.0
 25
0.0
 35
0.0
146
0.0
 13
0.0
 23
0.0
 33
0.0
 16
1.0
 26
0.0
 36
0.0
 17
0.0
 27
1.0
 37
0.0
 76
     0
330
23
  0
LAYOUT
  5
22
102
{ACAD_REACTORS
330
1A
102
}
330
1A
100
AcDbPlotSettings
  1

  2
none_device
  4

  6

 40
0.0
 41
0.0
 42
0.0
 43
0.0
 44
0.0
 45
0.0
 46
0.0
 47
0.0
 48
0.0
 49
0.0
140
0.0
141
0.0
142
1.0
143
1.0
 70
  1712
 72
     0
 73
     0
 74
     0
  7

 75
     0
 76
     0
 77
     2
 78
   300
147
1.0
148
0.0
149
0.0
100
AcDbLayout
  1
Model
 70
     1
 71
     0
 10
0.0
 20
0.0
 11
12.0
 21
9.0
 12
0.0
 22
0.0
 32
0.0
 14
1.000000000000000E+20
 24
1.000000000000000E+20
 34
1.000000000000000E+20
 15
-1.000000000000000E+20
 25
-1.000000000000000E+20
 35
-1.000000000000000E+20
146
0.0
 13
0.0
 23
0.0
 33
0.0
 16
1.0
 26
0.0
 36
0.0
 17
0.0
 27
1.0
 37
0.0
 76
     0
330
1F
331
29
  0
MATERIAL
  5
3D
102
{ACAD_REACTORS
330
3B
102
}
330
3B
100
AcDbMaterial
  1
ByBlock
 72
     1
 94
      127
  0
MATERIAL
  5
3C
102
{ACAD_REACTORS
330
3B
102
}
330
3B
100
AcDbMaterial
  1
ByLayer
 72
     1
 94
      127
  0
MATERIAL
  5
3E
102
{ACAD_REACTORS
330
3B
102
}
330
3B
100
AcDbMaterial
  1
Global
 72
     1
 94
      127
  0
MLINESTYLE
  5
18
102
{ACAD_REACTORS
330
17
102
}
330
17
100
AcDbMlineStyle
  2
Standard
 70
     0
  3

 62
   256
 51
90.0
 52
90.0
 71
     2
 49
0.5
 62
   256
  6
BYLAYER
 49
-0.5
 62
   256
  6
BYLAYER
  0
ACDBPLACEHOLDER
  5
F
102
{ACAD_REACTORS
330
E
102
}
330
E
  0
VISUALSTYLE
  5
2F
102
{ACAD_REACTORS
330
2A
102
}
330
2A
100
AcDbVisualStyle
  2
2dWireframe
 70
     4
177
     2
291
     0
 71
     0
176
     1
 72
     2
176
     1
 73
     0
176
     1
 90
        0
176
     1
 40
-0.6
176
     1
 41
-30.0
176
     1
 62
     5
 63
     7
421
 16777215
176
     1
 74
     1
176
     1
 91
        4
176
     1
 64
     7
176
     1
 65
   257
176
     1
 75
     1
176
     1
175
     1
176
     1
 42
1.0
176
     1
 92
        0
176
     1
 66
   257
176
     1
 43
1.0
176
     1
 76
     1
176
     1
 77
     6
176
     1
 78
     2
176
     1
 67
     7
176
     1
 79
     5
176
     1
170
     0
176
     1
171
     0
176
     1
290
     0
176
     1
 93
        1
176
     1
 44
0.0
176
     1
173
     0
176
     1
  0
VISUALSTYLE
  5
31
102
{ACAD_REACTORS
330
2A
102
}
330
2A
100
AcDbVisualStyle
  2
3D Hidden
 70
     6
177
     2
291
     0
 71
     1
176
     1
 72
     2
176
     1
 73
     2
176
     1
 90
        0
176
     1
 40
-0.6
176
     1
 41
-30.0
176
     1
 62
     5
 63
     7
421
 16777215
176
     1
 74
     2
176
     1
 91
        2
176
     1
 64
     7
176
     1
 65
   257
176
     1
 75
     2
176
     1
175
     1
176
     1
 42
40.0
176
     1
 92
        0
176
     1
 66
   257
176
     1
 43
1.0
176
     1
 76
     1
176
     1
 77
     6
176
     1
 78
     2
176
     1
 67
     7
176
     1
 79
     3
176
     1
170
     0
176
     1
171
     0
176
     1
290
     0
176
     1
 93
        1
176
     1
 44
0.0
176
     1
173
     0
176
     1
  0
VISUALSTYLE
  5
30
102
{ACAD_REACTORS
330
2A
102
}
330
2A
100
AcDbVisualStyle
  2
3dWireframe
 70
     5
177
     2
291
     0
 71
     0
176
     1
 72
     2
176
     1
 73
     0
176
     1
 90
        0
176
     1
 40
-0.6
176
     1
 41
-30.0
176
     1
 62
     5
 63
     7
421
 16777215
176
     1
 74
     1
176
     1
 91
        4
176
     1
 64
     7
176
     1
 65
   257
176
     1
 75
     1
176
     1
175
     1
176
     1
 42
1.0
176
     1
 92
        0
176
     1
 66
   257
176
     1
 43
1.0
176
     1
 76
     1
176
     1
 77
     6
176
     1
 78
     2
176
     1
 67
     7
176
     1
 79
     5
176
     1
170
     0
176
     1
171
     0
176
     1
290
     0
176
     1
 93
        1
176
     1
 44
0.0
176
     1
173
     0
176
     1
  0
VISUALSTYLE
  5
32
102
{ACAD_REACTORS
330
2A
102
}
330
2A
100
AcDbVisualStyle
  2
Basic
 70
     7
177
     2
291
     1
 71
     1
176
     1
 72
     0
176
     1
 73
     1
176
     1
 90
        0
176
     1
 40
-0.6
176
     1
 41
-30.0
176
     1
 62
     5
 63
     7
421
 16777215
176
     1
 74
     0
176
     1
 91
        4
176
     1
 64
     7
176
     1
 65
   257
176
     1
 75
     1
176
     1
175
     1
176
     1
 42
1.0
176
     1
 92
        8
176
     1
 66
     7
176
     1
 43
1.0
176
     1
 76
     1
176
     1
 77
     6
176
     1
 78
     2
176
     1
 67
     7
176
     1
 79
     5
176
     1
170
     0
176
     1
171
     0
176
     1
290
     0
176
     1
 93
        1
176
     1
 44
0.0
176
     1
173
     0
176
     1
  0
VISUALSTYLE
  5
36
102
{ACAD_REACTORS
330
2A
102
}
330
2A
100
AcDbVisualStyle
  2
Brighten
 70
    12
177
     2
291
     1
 71
     2
176
     1
 72
     2
176
     1
 73
     0
176
     1
 90
        0
176
     1
 40
-0.6
176
     1
 41
-30.0
176
     1
 62
     5
 63
     7
421
 16777215
176
     1
 74
     1
176
     1
 91
        4
176
     1
 64
     7
176
     1
 65
   257
176
     1
 75
     1
176
     1
175
     1
176
     1
 42
1.0
176
     1
 92
        8
176
     1
 66
     7
176
     1
 43
1.0
176
     1
 76
     1
176
     1
 77
     6
176
     1
 78
     2
176
     1
 67
     7
176
     1
 79
     5
176
     1
170
     0
176
     1
171
     0
176
     1
290
     0
176
     1
 93
        1
176
     1
 44
50.0
176
     1
173
     0
176
     1
  0
VISUALSTYLE
  5
3A
102
{ACAD_REACTORS
330
2A
102
}
330
2A
100
AcDbVisualStyle
  2
ColorChange
 70
    16
177
     2
291
     1
 71
     2
176
     1
 72
     2
176
     1
 73
     3
176
     1
 90
        0
176
     1
 40
-0.6
176
     1
 41
-30.0
176
     1
 62
     5
 63
     8
421
  8421504
176
     1
 74
     1
176
     1
 91
        4
176
     1
 64
     7
176
     1
 65
   257
176
     1
 75
     1
176
     1
175
     1
176
     1
 42
1.0
176
     1
 92
        8
176
     1
 66
     8
424
  8421504
176
     1
 43
1.0
176
     1
 76
     1
176
     1
 77
     6
176
     1
 78
     2
176
     1
 67
     7
176
     1
 79
     5
176
     1
170
     0
176
     1
171
     0
176
     1
290
     0
176
     1
 93
        1
176
     1
 44
0.0
176
     1
173
     0
176
     1
  0
VISUALSTYLE
  5
34
102
{ACAD_REACTORS
330
2A
102
}
330
2A
100
AcDbVisualStyle
  2
Conceptual
 70
     9
177
     2
291
     0
 71
     3
176
     1
 72
     2
176
     1
 73
     0
176
     1
 90
        0
176
     1
 40
-0.6
176
     1
 41
-30.0
176
     1
 62
     5
 63
     7
421
 16777215
176
     1
 74
     2
176
     1
 91
        2
176
     1
 64
     7
176
     1
 65
   257
176
     1
 75
     1
176
     1
175
     1
176
     1
 42
40.0
176
     1
 92
        8
176
     1
 66
     7
176
     1
 43
1.0
176
     1
 76
     1
176
     1
 77
     6
176
     1
 78
     2
176
     1
 67
     7
176
     1
 79
     3
176
     1
170
     0
176
     1
171
     0
176
     1
290
     0
176
     1
 93
        1
176
     1
 44
0.0
176
     1
173
     0
176
     1
  0
VISUALSTYLE
  5
35
102
{ACAD_REACTORS
330
2A
102
}
330
2A
100
AcDbVisualStyle
  2
Dim
 70
    11
177
     2
291
     1
 71
     2
176
     1
 72
     2
176
     1
 73
     0
176
     1
 90
        0
176
     1
 40
-0.6
176
     1
 41
-30.0
176
     1
 62
     5
 63
     7
421
 16777215
176
     1
 74
     1
176
     1
 91
        4
176
     1
 64
     7
176
     1
 65
   257
176
     1
 75
     1
176
     1
175
     1
176
     1
 42
1.0
176
     1
 92
        8
176
     1
 66
     7
176
     1
 43
1.0
176
     1
 76
     1
176
     1
 77
     6
176
     1
 78
     2
176
     1
 67
     7
176
     1
 79
     5
176
     1
170
     0
176
     1
171
     0
176
     1
290
     0
176
     1
 93
        1
176
     1
 44
-50.0
176
     1
173
     0
176
     1
  0
VISUALSTYLE
  5
39
102
{ACAD_REACTORS
330
2A
102
}
330
2A
100
AcDbVisualStyle
  2
Facepattern
 70
    15
177
     2
291
     1
 71
     2
176
     1
 72
     2
176
     1
 73
     0
176
     1
 90
        0
176
     1
 40
-0.6
176
     1
 41
-30.0
176
     1
 62
     5
 63
     7
421
 16777215
176
     1
 74
     1
176
     1
 91
        4
176
     1
 64
     7
176
     1
 65
   257
176
     1
 75
     1
176
     1
175
     1
176
     1
 42
1.0
176
     1
 92
        8
176
     1
 66
     7
176
     1
 43
1.0
176
     1
 76
     1
176
     1
 77
     6
176
     1
 78
     2
176
     1
 67
     7
176
     1
 79
     5
176
     1
170
     0
176
     1
171
     0
176
     1
290
     0
176
     1
 93
        1
176
     1
 44
0.0
176
     1
173
     0
176
     1
  0
VISUALSTYLE
  5
2B
102
{ACAD_REACTORS
330
2A
102
}
330
2A
100
AcDbVisualStyle
  2
Flat
 70
     0
177
     2
291
     1
 71
     2
176
     1
 72
     1
176
     1
 73
     1
176
     1
 90
        2
176
     1
 40
-0.6
176
     1
 41
30.0
176
     1
 62
     5
 63
     7
421
 16777215
176
     1
 74
     0
176
     1
 91
        4
176
     1
 64
     7
176
     1
 65
   257
176
     1
 75
     1
176
     1
175
     1
176
     1
 42
1.0
176
     1
 92
        8
176
     1
 66
     7
176
     1
 43
1.0
176
     1
 76
     1
176
     1
 77
     6
176
     1
 78
     2
176
     1
 67
     7
176
     1
 79
     5
176
     1
170
     0
176
     1
171
     0
176
     1
290
     0
176
     1
 93
       13
176
     1
 44
0.0
176
     1
173
     0
176
     1
  0
VISUALSTYLE
  5
2C
102
{ACAD_REACTORS
330
2A
102
}
330
2A
100
AcDbVisualStyle
  2
FlatWithEdges
 70
     1
177
     2
291
     1
 71
     2
176
     1
 72
     1
176
     1
 73
     1
176
     1
 90
        2
176
     1
 40
-0.6
176
     1
 41
30.0
176
     1
 62
     5
 63
     7
421
 16777215
176
     1
 74
     1
176
     1
 91
        4
176
     1
 64
     7
176
     1
 65
   257
176
     1
 75
     1
176
     1
175
     1
176
     1
 42
1.0
176
     1
 92
        0
176
     1
 66
   257
176
     1
 43
1.0
176
     1
 76
     1
176
     1
 77
     6
176
     1
 78
     2
176
     1
 67
     7
176
     1
 79
     5
176
     1
170
     0
176
     1
171
     0
176
     1
290
     0
176
     1
 93
       13
176
     1
 44
0.0
176
     1
173
     0
176
     1
  0
VISUALSTYLE
  5
2D
102
{ACAD_REACTORS
330
2A
102
}
330
2A
100
AcDbVisualStyle
  2
Gouraud
 70
     2
177
     2
291
     1
 71
     2
176
     1
 72
     2
176
     1
 73
     1
176
     1
 90
        2
176
     1
 40
-0.6
176
     1
 41
30.0
176
     1
 62
     5
 63
     7
421
 16777215
176
     1
 74
     0
176
     1
 91
        4
176
     1
 64
     7
176
     1
 65
   257
176
     1
 75
     1
176
     1
175
     1
176
     1
 42
1.0
176
     1
 92
        0
176
     1
 66
     7
176
     1
 43
1.0
176
     1
 76
     1
176
     1
 77
     6
176
     1
 78
     2
176
     1
 67
     7
176
     1
 79
     5
176
     1
170
     0
176
     1
171
     0
176
     1
290
     0
176
     1
 93
       13
176
     1
 44
0.0
176
     1
173
     0
176
     1
  0
VISUALSTYLE
  5
2E
102
{ACAD_REACTORS
330
2A
102
}
330
2A
100
AcDbVisualStyle
  2
GouraudWithEdges
 70
     3
177
     2
291
     1
 71
     2
176
     1
 72
     2
176
     1
 73
     1
176
     1
 90
        2
176
     1
 40
-0.6
176
     1
 41
30.0
176
     1
 62
     5
 63
     7
421
 16777215
176
     1
 74
     1
176
     1
 91
        4
176
     1
 64
     7
176
     1
 65
   257
176
     1
 75
     1
176
     1
175
     1
176
     1
 42
1.0
176
     1
 92
        0
176
     1
 66
   257
176
     1
 43
1.0
176
     1
 76
     1
176
     1
 77
     6
176
     1
 78
     2
176
     1
 67
     7
176
     1
 79
     5
176
     1
170
     0
176
     1
171
     0
176
     1
290
     0
176
     1
 93
       13
176
     1
 44
0.0
176
     1
173
     0
176
     1
  0
VISUALSTYLE
  5
38
102
{ACAD_REACTORS
330
2A
102
}
330
2A
100
AcDbVisualStyle
  2
Linepattern
 70
    14
177
     2
291
     1
 71
     2
176
     1
 72
     2
176
     1
 73
     0
176
     1
 90
        0
176
     1
 40
-0.6
176
     1
 41
-30.0
176
     1
 62
     5
 63
     7
421
 16777215
176
     1
 74
     1
176
     1
 91
        4
176
     1
 64
     7
176
     1
 65
   257
176
     1
 75
     7
176
     1
175
     7
176
     1
 42
1.0
176
     1
 92
        8
176
     1
 66
     7
176
     1
 43
1.0
176
     1
 76
     1
176
     1
 77
     6
176
     1
 78
     2
176
     1
 67
     7
176
     1
 79
     5
176
     1
170
     0
176
     1
171
     0
176
     1
290
     0
176
     1
 93
        1
176
     1
 44
0.0
176
     1
173
     0
176
     1
  0
VISUALSTYLE
  5
33
102
{ACAD_REACTORS
330
2A
102
}
330
2A
100
AcDbVisualStyle
  2
Realistic
 70
     8
177
     2
291
     0
 71
     2
176
     1
 72
     2
176
     1
 73
     0
176
     1
 90
        0
176
     1
 40
-0.6
176
     1
 41
-30.0
176
     1
 62
     5
 63
     7
421
 16777215
176
     1
 74
     1
176
     1
 91
        0
176
     1
 64
     7
176
     1
 65
   257
176
     1
 75
     1
176
     1
175
     1
176
     1
 42
1.0
176
     1
 92
        8
176
     1
 66
     8
424
  7895160
176
     1
 43
1.0
176
     1
 76
     1
176
     1
 77
     6
176
     1
 78
     2
176
     1
 67
     7
176
     1
 79
     5
176
     1
170
     0
176
     1
171
     0
176
     1
290
     0
176
     1
 93
       13
176
     1
 44
0.0
176
     1
173
     0
176
     1
  0
VISUALSTYLE
  5
37
102
{ACAD_REACTORS
330
2A
102
}
330
2A
100
AcDbVisualStyle
  2
Thicken
 70
    13
177
     2
291
     1
 71
     2
176
     1
 72
     2
176
     1
 73
     0
176
     1
 90
        0
176
     1
 40
-0.6
176
     1
 41
-30.0
176
     1
 62
     5
 63
     7
421
 16777215
176
     1
 74
     1
176
     1
 91
        4
176
     1
 64
     7
176
     1
 65
   257
176
     1
 75
     1
176
     1
175
     1
176
     1
 42
1.0
176
     1
 92
       12
176
     1
 66
     7
176
     1
 43
1.0
176
     1
 76
     1
176
     1
 77
     6
176
     1
 78
     2
176
     1
 67
     7
176
     1
 79
     5
176
     1
170
     0
176
     1
171
     0
176
     1
290
     0
176
     1
 93
        1
176
     1
 44
0.0
176
     1
173
     0
176
     1
  0
ENDSEC
  0
EOF
